  0
SECTION
  2
HEADER
  9
$ACADVER
  1
AC1015
  9
$ACADMAINTVER
 70
               6
  9
$DWGCODEPAGE
  3
ANSI_1252
  9
$INSBASE
 10
0.0
 20
0.0
 30
0.0
  9
$EXTMIN
 10
-1160.0
 20
-42.0
 30
0.0
  9
$EXTMAX
 10
1134.0
 20
724.0
 30
0.0000000065051359
  9
$LIMMIN
 10
0.0
 20
0.0
  9
$LIMMAX
 10
0.0
 20
0.0
  9
$ORTHOMODE
 70
               0
  9
$REGENMODE
 70
               1
  9
$FILLMODE
 70
               1
  9
$QTEXTMODE
 70
               0
  9
$MIRRTEXT
 70
               1
  9
$LTSCALE
 40
50.799999999999997
  9
$ATTMODE
 70
               1
  9
$TEXTSIZE
 40
0.2
  9
$TRACEWID
 40
1.0
  9
$TEXTSTYLE
  7
Standard
  9
$CLAYER
  8
0
  9
$CELTYPE
  6
Continuous
  9
$CECOLOR
 62
             256
  9
$CELTSCALE
 40
1.0
  9
$DISPSILH
 70
               0
  9
$DIMSCALE
 40
1.0
  9
$DIMASZ
 40
0.18
  9
$DIMEXO
 40
0.0625
  9
$DIMDLI
 40
0.38
  9
$DIMRND
 40
0.0
  9
$DIMDLE
 40
0.0
  9
$DIMEXE
 40
0.18
  9
$DIMTP
 40
0.0
  9
$DIMTM
 40
0.0
  9
$DIMTXT
 40
0.18
  9
$DIMCEN
 40
0.09
  9
$DIMTSZ
 40
0.0
  9
$DIMTOL
 70
               0
  9
$DIMLIM
 70
               0
  9
$DIMTIH
 70
               1
  9
$DIMTOH
 70
               1
  9
$DIMSE1
 70
               0
  9
$DIMSE2
 70
               0
  9
$DIMTAD
 70
               0
  9
$DIMZIN
 70
               0
  9
$DIMBLK
  1

  9
$DIMASO
 70
               1
  9
$DIMSHO
 70
               1
  9
$DIMPOST
  1

  9
$DIMAPOST
  1

  9
$DIMALT
 70
               0
  9
$DIMALTD
 70
               2
  9
$DIMALTF
 40
25.399999999999999
  9
$DIMLFAC
 40
1.0
  9
$DIMTOFL
 70
               0
  9
$DIMTVP
 40
0.0
  9
$DIMTIX
 70
               0
  9
$DIMSOXD
 70
               0
  9
$DIMSAH
 70
               0
  9
$DIMBLK1
  1

  9
$DIMBLK2
  1

  9
$DIMSTYLE
  2
Standard
  9
$DIMCLRD
 70
               0
  9
$DIMCLRE
 70
               0
  9
$DIMCLRT
 70
               0
  9
$DIMTFAC
 40
1.0
  9
$DIMGAP
 40
0.09
  9
$DIMJUST
 70
               0
  9
$DIMSD1
 70
               0
  9
$DIMSD2
 70
               0
  9
$DIMTOLJ
 70
               1
  9
$DIMTZIN
 70
               0
  9
$DIMALTZ
 70
               0
  9
$DIMALTTZ
 70
               0
  9
$DIMUPT
 70
               0
  9
$DIMDEC
 70
               4
  9
$DIMTDEC
 70
               4
  9
$DIMALTU
 70
               2
  9
$DIMALTTD
 70
               2
  9
$DIMTXSTY
  7
Standard
  9
$DIMAUNIT
 70
               0
  9
$DIMADEC
 70
               0
  9
$DIMALTRND
 40
0.0
  9
$DIMAZIN
 70
               0
  9
$DIMDSEP
 70
               0
  9
$DIMATFIT
 70
               3
  9
$DIMFRAC
 70
               0
  9
$DIMLDRBLK
  1

  9
$DIMLUNIT
 70
               2
  9
$DIMLWD
 70
               0
  9
$DIMLWE
 70
               0
  9
$DIMTMOVE
 70
               0
  9
$LUNITS
 70
               2
  9
$LUPREC
 70
               4
  9
$SKETCHINC
 40
0.1
  9
$FILLETRAD
 40
0.0
  9
$AUNITS
 70
               0
  9
$AUPREC
 70
               0
  9
$MENU
  1
acad
  9
$ELEVATION
 40
0.0
  9
$PELEVATION
 40
0.0
  9
$THICKNESS
 40
0.0
  9
$LIMCHECK
 70
               0
  9
$CHAMFERA
 40
0.0
  9
$CHAMFERB
 40
0.0
  9
$CHAMFERC
 40
0.0
  9
$CHAMFERD
 40
0.0
  9
$SKPOLY
 70
               0
  9
$TDCREATE
 40
2453765.836099537
  9
$TDUCREATE
 40
0.000000000
  9
$TDUPDATE
 40
2453765.836099537
  9
$TDUUPDATE
 40
0.000000000
  9
$TDINDWG
 40
0.0000000000
  9
$TDUSRTIMER
 40
0.0000000000
  9
$USRTIMER
 70
               1
  9
$ANGBASE
 50
0.0
  9
$ANGDIR
 70
               0
  9
$PDMODE
 70
               1
  9
$PDSIZE
 40
-2.0
  9
$PLINEWID
 40
0.0
  9
$SPLFRAME
 70
               0
  9
$SPLINETYPE
 70
               6
  9
$SPLINESEGS
 70
               8
  9
$HANDSEED
  5
21E
  9
$SURFTAB1
 70
               6
  9
$SURFTAB2
 70
               6
  9
$SURFTYPE
 70
               6
  9
$SURFU
 70
               6
  9
$SURFV
 70
               6
  9
$UCSBASE
  2

  9
$UCSNAME
  2

  9
$UCSORG
 10
0.0
 20
0.0
 30
0.0
  9
$UCSXDIR
 10
1.0
 20
0.0
 30
0.0
  9
$UCSYDIR
 10
0.0
 20
1.0
 30
0.0
  9
$UCSORTHOREF
  2

  9
$UCSORTHOVIEW
 70
               0
  9
$UCSORGTOP
 10
0.0
 20
0.0
 30
0.0
  9
$UCSORGBOTTOM
 10
0.0
 20
0.0
 30
0.0
  9
$UCSORGLEFT
 10
0.0
 20
0.0
 30
0.0
  9
$UCSORGRIGHT
 10
0.0
 20
0.0
 30
0.0
  9
$UCSORGFRONT
 10
0.0
 20
0.0
 30
0.0
  9
$UCSORGBACK
 10
0.0
 20
0.0
 30
0.0
  9
$PUCSBASE
  2

  9
$PUCSNAME
  2

  9
$PUCSORG
 10
0.0
 20
0.0
 30
0.0
  9
$PUCSXDIR
 10
1.0
 20
0.0
 30
0.0
  9
$PUCSYDIR
 10
0.0
 20
1.0
 30
0.0
  9
$PUCSORTHOREF
  2

  9
$PUCSORTHOVIEW
 70
               0
  9
$PUCSORGTOP
 10
0.0
 20
0.0
 30
0.0
  9
$PUCSORGBOTTOM
 10
0.0
 20
0.0
 30
0.0
  9
$PUCSORGLEFT
 10
0.0
 20
0.0
 30
0.0
  9
$PUCSORGRIGHT
 10
0.0
 20
0.0
 30
0.0
  9
$PUCSORGFRONT
 10
0.0
 20
0.0
 30
0.0
  9
$PUCSORGBACK
 10
0.0
 20
0.0
 30
0.0
  9
$USERI1
 70
               0
  9
$USERI2
 70
               0
  9
$USERI3
 70
               0
  9
$USERI4
 70
               0
  9
$USERI5
 70
               0
  9
$USERR1
 40
0.0
  9
$USERR2
 40
0.0
  9
$USERR3
 40
0.0
  9
$USERR4
 40
0.0
  9
$USERR5
 40
0.0
  9
$WORLDVIEW
 70
               1
  9
$SHADEDGE
 70
               3
  9
$SHADEDIF
 70
              70
  9
$TILEMODE
 70
               1
  9
$MAXACTVP
 70
              16
  9
$PINSBASE
 10
0.0
 20
0.0
 30
0.0
  9
$PLIMCHECK
 70
               0
  9
$PEXTMIN
 10
1.0000000000000000E+20
 20
1.0000000000000000E+20
 30
1.0000000000000000E+20
  9
$PEXTMAX
 10
-1.0000000000000000E+20
 20
-1.0000000000000000E+20
 30
-1.0000000000000000E+20
  9
$PLIMMIN
 10
0.0
 20
0.0
  9
$PLIMMAX
 10
12.0
 20
9.0
  9
$UNITMODE
 70
               0
  9
$VISRETAIN
 70
               0
  9
$PLINEGEN
 70
               1
  9
$PSLTSCALE
 70
               0
  9
$TREEDEPTH
 70
            3020
  9
$CMLSTYLE
  2
Standard
  9
$CMLJUST
 70
               0
  9
$CMLSCALE
 40
1.0
  9
$PROXYGRAPHICS
 70
               0
  9
$MEASUREMENT
 70
               1
  9
$CELWEIGHT
370
               0
  9
$ENDCAPS
280
               0
  9
$JOINSTYLE
280
               0
  9
$LWDISPLAY
290
               1
  9
$INSUNITS
 70
               4
  9
$HYPERLINKBASE
  1

  9
$STYLESHEET
  1

  9
$XEDIT
290
               1
  9
$CEPSNTYPE
380
               0
  9
$PSTYLEMODE
290
               1
  9
$FINGERPRINTGUID
  2

  9
$VERSIONGUID
  2

  9
$EXTNAMES
290
               1
  9
$PSVPSCALE
 40
0.0
  0
ENDSEC
  0
SECTION
  2
CLASSES
  0
CLASS
  1
LWPOLYLINE
  2
AcDbPolyline
  3
AutoCAD 2000
 90
    32768
280
               0
281
               1
  0
CLASS
  1
IMAGE
  2
AcDbRasterImage
  3
ISM
 90
    32895
280
               0
281
               1
  0
CLASS
  1
OLE2FRAME
  2
AcDbOle2Frame
  3
AutoCAD 2000
 90
    32768
280
               0
281
               1
  0
CLASS
  1
HATCH
  2
AcDbHatch
  3
AutoCAD 2000
 90
    32768
280
               0
281
               1
  0
CLASS
  1
DICTIONARYVAR
  2
AcDbDictionaryVar
  3
AutoCAD 2000
 90
    32768
280
               0
281
               0
  0
CLASS
  1
RASTERVARIABLES
  2
AcDbRasterVariables
  3
ISM
 90
    32768
280
               0
281
               0
  0
CLASS
  1
IMAGEDEF
  2
AcDbRasterImageDef
  3
ISM
 90
    32768
280
               0
281
               0
  0
CLASS
  1
IMAGEDEF_REACTOR
  2
AcDbRasterImageDefReactor
  3
ISM
 90
    32769
280
               0
281
               0
  0
CLASS
  1
IDBUFFER
  2
AcDbIdBuffer
  3
AutoCAD 2000
 90
    32768
280
               0
281
               0
  0
CLASS
  1
SPATIAL_FILTER
  2
AcDbSpatialFilter
  3
AutoCAD 2000
 90
    32768
280
               0
281
               0
  0
CLASS
  1
XRECORD
  2
AcDbXrecord
  3
AutoCAD 2000
 90
    32768
280
               0
281
               0
  0
CLASS
  1
SORTENTSTABLE
  2
AcDbSortentsTable
  3
AutoCAD 2000
 90
    32768
280
               0
281
               0
  0
CLASS
  1
LAYER_INDEX
  2
AcDbLayerIndex
  3
AutoCAD 2000
 90
    32768
280
               0
281
               0
  0
CLASS
  1
SPATIAL_INDEX
  2
AcDbSpatialIndex
  3
AutoCAD 2000
 90
    32768
280
               0
281
               0
  0
CLASS
  1
OBJECT_PTR
  2
CAseDLPNTableRecord
  3
"ASE-LPNTableRecord"
 90
    32769
280
               0
281
               0
  0
CLASS
  1
LAYOUT
  2
AcDbLayout
  3
AutoCAD 2000
 90
        0
280
               0
281
               0
  0
CLASS
  1
PLOTSETTINGS
  2
AcDbPlotSettings
  3
AutoCAD 2000
 90
    32768
280
               0
281
               0
  0
CLASS
  1
ACDBDICTIONARYWDFLT
  2
AcDbDictionaryWithDefault
  3
AutoCAD 2000
 90
        0
280
               0
281
               0
  0
CLASS
  1
ACDBPLACEHOLDER
  2
AcDbPlaceHolder
  3
AutoCAD 2000
 90
        0
280
               0
281
               0
  0
CLASS
  1
VBA_PROJECT
  2
AcDbVbaProject
  3
acadvba
 90
    32768
280
               0
281
               0
  0
CLASS
  1
WIPEOUT
  2
AcDbWipeout
  3
WipeOut|AutoCAD Express Tool|expresstools@autodesk.com
 90
      127
280
               0
281
               1
  0
CLASS
  1
WIPEOUTVARIABLES
  2
AcDbWipeoutVariables
  3
WipeOut|AutoCAD Express Tool|expresstools@autodesk.com
 90
        0
280
               0
281
               0
  0
CLASS
  1
RTEXT
  2
RText
  3
RText|AutoCAD Express Tool|expresstools@autodesk.com
 90
    32768
280
               0
281
               1
  0
CLASS
  1
ARCALIGNEDTEXT
  2
AcDbArcAlignedText
  3
ATEXT|AutoCAD Express Tool|expresstools@autodesk.com
 90
    32768
280
               0
281
               1
  0
ENDSEC
  0
SECTION
  2
TABLES
  0
TABLE
  2
VPORT
  5
7
100
AcDbSymbolTable
 70
               1
  0
VPORT
  5
15
100
AcDbSymbolTableRecord
100
AcDbViewportTableRecord
  2
*ACTIVE
 70
               0
 10
0.0
 20
0.0
 11
1.0
 21
1.0
 12
-13.0
 22
341.0
 13
0.0
 23
0.0
 14
1.0
 24
1.0
 15
0.0
 25
0.0
 16
0.0
 26
0.0
 36
1.0
 17
0.0
 27
0.0
 37
0.0
 40
766.0
 41
0.688564
 42
50.0
 43
0.0
 44
0.0
 50
0.0
 51
0.0
 71
               0
 72
             100
 73
               1
 74
               1
 75
               0
 76
               0
 77
               0
 78
               0
281
               0
 65
               0
110
0.0
120
0.0
130
0.0
111
1.0
121
0.0
131
0.0
112
0.0
122
1.0
132
0.0
345
0
346
0
 79
               0
146
0.0
  0
ENDTAB
  0
TABLE
  2
LTYPE
  5
4
100
AcDbSymbolTable
 70
              13
  0
LTYPE
  5
11
100
AcDbSymbolTableRecord
100
AcDbLinetypeTableRecord
  2
ByBlock
 70
              64
  3

 72
              65
 73
               0
 40
0.0
  0
LTYPE
  5
12
100
AcDbSymbolTableRecord
100
AcDbLinetypeTableRecord
  2
ByLayer
 70
              64
  3

 72
              65
 73
               0
 40
0.0
  0
LTYPE
  5
13
100
AcDbSymbolTableRecord
100
AcDbLinetypeTableRecord
  2
Continuous
 70
              64
  3
Solid line
 72
              65
 73
               0
 40
0.0
  0
LTYPE
  5
30
100
AcDbSymbolTableRecord
100
AcDbLinetypeTableRecord
  2
STYLE_01
 70
               0
  3

 72
              65
 73
               2
 40
0.39368
 49
0.19684
 74
               0
 49
-0.19684
 74
               0
  0
LTYPE
  5
31
100
AcDbSymbolTableRecord
100
AcDbLinetypeTableRecord
  2
STYLE_02
 70
               0
  3

 72
              65
 73
               2
 40
0.590515
 49
0.393675
 74
               0
 49
-0.19684
 74
               0
  0
LTYPE
  5
32
100
AcDbSymbolTableRecord
100
AcDbLinetypeTableRecord
  2
STYLE_03
 70
               0
  3

 72
              65
 73
               2
 40
0.787355
 49
0.590515
 74
               0
 49
-0.19684
 74
               0
  0
LTYPE
  5
33
100
AcDbSymbolTableRecord
100
AcDbLinetypeTableRecord
  2
STYLE_04
 70
               0
  3

 72
              65
 73
               2
 40
1.18103
 49
0.9841900000000001
 74
               0
 49
-0.1968399999999999
 74
               0
  0
LTYPE
  5
34
100
AcDbSymbolTableRecord
100
AcDbLinetypeTableRecord
  2
STYLE_05
 70
               0
  3

 72
              65
 73
               2
 40
0.19684
 49
0.069505
 74
               0
 49
-0.127335
 74
               0
  0
LTYPE
  5
35
100
AcDbSymbolTableRecord
100
AcDbLinetypeTableRecord
  2
STYLE_06
 70
               0
  3

 72
              65
 73
               4
 40
1.0537000000000001
 49
0.590515
 74
               0
 49
-0.19684
 74
               0
 49
0.069505
 74
               0
 49
-0.1968400000000001
 74
               0
  0
LTYPE
  5
36
100
AcDbSymbolTableRecord
100
AcDbLinetypeTableRecord
  2
STYLE_07
 70
               0
  3

 72
              65
 73
               6
 40
1.8410550000000001
 49
0.590515
 74
               0
 49
-0.19684
 74
               0
 49
0.5905149999999999
 74
               0
 49
-0.1968400000000001
 74
               0
 49
0.069505
 74
               0
 49
-0.1968400000000001
 74
               0
  0
LTYPE
  5
37
100
AcDbSymbolTableRecord
100
AcDbLinetypeTableRecord
  2
STYLE_08
 70
               0
  3

 72
              65
 73
               6
 40
1.3200449999999999
 49
0.590515
 74
               0
 49
-0.19684
 74
               0
 49
0.069505
 74
               0
 49
-0.1968400000000001
 74
               0
 49
0.069505
 74
               0
 49
-0.1968399999999999
 74
               0
  0
LTYPE
  5
38
100
AcDbSymbolTableRecord
100
AcDbLinetypeTableRecord
  2
STYLE_09
 70
               0
  3

 72
              65
 73
               4
 40
2.5589050000000002
 49
1.9683850000000001
 74
               0
 49
-0.1968400000000001
 74
               0
 49
0.1968400000000001
 74
               0
 49
-0.1968400000000001
 74
               0
  0
LTYPE
  5
39
100
AcDbSymbolTableRecord
100
AcDbLinetypeTableRecord
  2
STYLE_10
 70
               0
  3

 72
              65
 73
               6
 40
2.952585
 49
1.9683850000000001
 74
               0
 49
-0.1968400000000001
 74
               0
 49
0.1968400000000001
 74
               0
 49
-0.1968400000000001
 74
               0
 49
0.1968399999999998
 74
               0
 49
-0.1968399999999998
 74
               0
  0
ENDTAB
  0
TABLE
  2
LAYER
  5
2
100
AcDbSymbolTable
 70
               5
  0
LAYER
  5
14
100
AcDbSymbolTableRecord
100
AcDbLayerTableRecord
  2
0
 70
               0
 62
               7
  6
Continuous
290
               1
370
              -3
390
1D
  0
LAYER
  5
3A
100
AcDbSymbolTableRecord
100
AcDbLayerTableRecord
  2
Defpoints
 70
               0
 62
               7
  6
Continuous
290
               0
370
              -3
390
1D
  0
LAYER
  5
3B
100
AcDbSymbolTableRecord
100
AcDbLayerTableRecord
  2
Keine
 70
               0
 62
               7
  6
Continuous
290
               1
370
               5
390
1D
  0
LAYER
  5
3C
100
AcDbSymbolTableRecord
100
AcDbLayerTableRecord
  2
Bemaßung
 70
               0
 62
               7
  6
Continuous
290
               1
370
               5
390
1D
  0
LAYER
  5
3D
100
AcDbSymbolTableRecord
100
AcDbLayerTableRecord
  2
Hilfskonstruktionen-1
 70
               0
 62
               6
  6
STYLE_01
290
               1
370
               9
390
1D
  0
ENDTAB
  0
TABLE
  2
STYLE
  5
3
100
AcDbSymbolTable
 70
               1
  0
STYLE
  5
17
100
AcDbSymbolTableRecord
100
AcDbTextStyleTableRecord
  2
Standard
 70
               0
 40
0.0
 41
1.0
 50
0.0
 71
               0
 42
0.0
  3
txt
  4

  0
ENDTAB
  0
TABLE
  2
VIEW
  5
5
100
AcDbSymbolTable
 70
               0
  0
ENDTAB
  0
TABLE
  2
UCS
  5
6
100
AcDbSymbolTable
 70
               0
  0
ENDTAB
  0
TABLE
  2
APPID
  5
8
100
AcDbSymbolTable
 70
               1
  0
APPID
  5
16
100
AcDbSymbolTableRecord
100
AcDbRegAppTableRecord
  2
ACAD
 70
               0
  0
ENDTAB
  0
TABLE
  2
DIMSTYLE
  5
9
100
AcDbSymbolTable
 70
               1
100
AcDbDimStyleTable
 71
               0
  0
DIMSTYLE
105
18
100
AcDbSymbolTableRecord
100
AcDbDimStyleTableRecord
  2
Standard
 70
               0
  3

  4

 40
1.0
 41
0.18
 42
0.0625
 43
0.38
 44
0.18
 45
0.0
 46
0.0
 47
0.0
 48
0.0
 71
               0
 72
               0
 73
               1
 74
               1
 75
               0
 76
               0
 77
               0
 78
               0
 79
               0
140
0.18
141
0.09
142
0.0
143
25.399999999999999
144
1.0
145
0.0
146
1.0
147
0.09
148
0.0
170
               0
171
               2
172
               0
173
               0
174
               0
175
               0
176
               0
177
               0
178
               0
179
               0
271
               4
272
               4
273
               2
274
               2
275
               0
276
               0
277
               2
278
              46
279
               0
280
               0
281
               0
282
               0
283
               1
284
               0
285
               0
286
               0
288
               0
340
17
341
0
342
0
343
0
344
0
371
              -2
372
              -2
  0
ENDTAB
  0
TABLE
  2
BLOCK_RECORD
  5
1
100
AcDbSymbolTable
 70
              12
  0
BLOCK_RECORD
  5
A
100
AcDbSymbolTableRecord
100
AcDbBlockTableRecord
  2
*MODEL_SPACE
340
20
  0
BLOCK_RECORD
  5
B
100
AcDbSymbolTableRecord
100
AcDbBlockTableRecord
  2
*PAPER_SPACE
340
21
  0
BLOCK_RECORD
  5
24
100
AcDbSymbolTableRecord
100
AcDbBlockTableRecord
  2
Tür 7 oben
340
0
102
{BLKREFS
331
156
331
1F9
331
1FA
331
1FB
331
1FC
331
1FD
331
1FE
331
1FF
331
200
331
201
102
}
  0
BLOCK_RECORD
  5
25
100
AcDbSymbolTableRecord
100
AcDbBlockTableRecord
  2
Wand Keller
340
0
102
{BLKREFS
331
19D
331
19E
331
19F
102
}
  0
BLOCK_RECORD
  5
26
100
AcDbSymbolTableRecord
100
AcDbBlockTableRecord
  2
Sockel
340
0
102
{BLKREFS
331
1A8
331
1A9
102
}
  0
BLOCK_RECORD
  5
27
100
AcDbSymbolTableRecord
100
AcDbBlockTableRecord
  2
Tür1 von oben
340
0
102
{BLKREFS
331
1AB
331
1AC
331
1AD
331
1AE
331
1AF
331
1B8
102
}
  0
BLOCK_RECORD
  5
28
100
AcDbSymbolTableRecord
100
AcDbBlockTableRecord
  2
Tür oben2
340
0
102
{BLKREFS
331
1B0
331
1B1
331
1B2
331
1B3
331
1B4
331
1B5
331
1B6
331
1B7
102
}
  0
BLOCK_RECORD
  5
29
100
AcDbSymbolTableRecord
100
AcDbBlockTableRecord
  2
Tür oben 3
340
0
102
{BLKREFS
331
1B9
331
1BA
331
1BB
331
1BC
331
1BD
331
1BE
331
1BF
331
1C0
331
1C1
331
1C2
331
1C3
331
1C4
331
1C5
102
}
  0
BLOCK_RECORD
  5
2A
100
AcDbSymbolTableRecord
100
AcDbBlockTableRecord
  2
Doppelfenster
340
0
102
{BLKREFS
331
1C6
331
1C7
331
1C8
331
1C9
331
1CA
331
1CB
331
1CC
102
}
  0
BLOCK_RECORD
  5
2B
100
AcDbSymbolTableRecord
100
AcDbBlockTableRecord
  2
Tür oben4
340
0
102
{BLKREFS
331
1CD
331
1CE
331
1CF
331
1D0
331
1D1
331
1D2
331
1D3
331
1D4
331
1D5
331
1D6
331
1D7
331
1D8
331
1D9
331
1DA
331
1DB
331
1DC
331
1DD
102
}
  0
BLOCK_RECORD
  5
2C
100
AcDbSymbolTableRecord
100
AcDbBlockTableRecord
  2
Tür oben 5
340
0
102
{BLKREFS
331
1DE
331
1DF
331
1E0
331
1E1
331
1E2
331
1E3
331
1E4
331
1E5
331
1E6
331
1E7
331
1E8
331
1E9
331
1EA
331
1EB
331
1EC
331
1ED
331
1EE
331
1EF
331
1F0
331
1F1
331
1F2
102
}
  0
BLOCK_RECORD
  5
2D
100
AcDbSymbolTableRecord
100
AcDbBlockTableRecord
  2
Tür oben 6
340
0
102
{BLKREFS
331
1F3
331
1F4
331
1F5
331
1F6
331
1F7
331
1F8
102
}
  0
BLOCK_RECORD
  5
2E
100
AcDbSymbolTableRecord
100
AcDbBlockTableRecord
  2
Treppenhaus
340
0
102
{BLKREFS
331
202
331
203
102
}
  0
BLOCK_RECORD
  5
2F
100
AcDbSymbolTableRecord
100
AcDbBlockTableRecord
  2
Treppenhaus 2
340
0
102
{BLKREFS
331
205
331
206
331
207
331
208
331
209
331
20A
102
}
  0
ENDTAB
  0
ENDSEC
  0
SECTION
  2
BLOCKS
  0
BLOCK
  5
D
100
AcDbEntity
  8
0
100
AcDbBlockBegin
  2
*MODEL_SPACE
 70
               0
 10
0.0
 20
0.0
 30
0.0
  3
*MODEL_SPACE
  1

  0
ENDBLK
  5
E
100
AcDbEntity
  8
0
100
AcDbBlockEnd
  0
BLOCK
  5
F
100
AcDbEntity
 67
               1
  8
0
100
AcDbBlockBegin
  2
*PAPER_SPACE
 70
               0
 10
0.0
 20
0.0
 30
0.0
  3
*PAPER_SPACE
  1

  0
ENDBLK
  5
10
100
AcDbEntity
 67
               1
  8
0
100
AcDbBlockEnd
  0
BLOCK
  5
3E
100
AcDbEntity
  8
Keine
100
AcDbBlockBegin
  2
Tür 7 oben
 70
               0
 10
0.0
 20
0.0
 30
0.0
  3
Tür 7 oben
  1

  0
LINE
  5
3F
100
AcDbEntity
  8
Keine
370
               5
  6
Continuous
 62
               7
100
AcDbLine
 10
10.75
 20
31.0
 30
0.0
 11
10.75
 21
-31.0
 31
0.0
  0
LINE
  5
40
100
AcDbEntity
  8
Keine
370
               5
  6
Continuous
 62
               7
100
AcDbLine
 10
10.75
 20
15.5
 30
0.0
 11
-10.75
 21
15.5
 31
0.0
  0
LINE
  5
41
100
AcDbEntity
  8
Keine
370
               5
  6
Continuous
 62
               7
100
AcDbLine
 10
-10.75
 20
30.5
 30
0.0
 11
-10.75
 21
-31.0
 31
0.0
  0
ENDBLK
  5
42
100
AcDbEntity
  8
Keine
100
AcDbBlockEnd
  0
BLOCK
  5
43
100
AcDbEntity
  8
Keine
100
AcDbBlockBegin
  2
Wand Keller
 70
               0
 10
0.0
 20
0.0
 30
0.0
  3
Wand Keller
  1

  0
LINE
  5
44
100
AcDbEntity
  8
Keine
370
               5
  6
Continuous
 62
               7
100
AcDbLine
 10
-6.5
 20
58.5
 30
0.0
 11
-6.5
 21
-58.5
 31
0.0
  0
LINE
  5
45
100
AcDbEntity
  8
Keine
370
               5
  6
Continuous
 62
               7
100
AcDbLine
 10
6.5
 20
57.5
 30
0.0
 11
6.5
 21
-54.5
 31
0.0
  0
ENDBLK
  5
46
100
AcDbEntity
  8
Keine
100
AcDbBlockEnd
  0
BLOCK
  5
47
100
AcDbEntity
  8
Keine
100
AcDbBlockBegin
  2
Sockel
 70
               0
 10
0.0
 20
0.0
 30
0.0
  3
Sockel
  1

  0
LINE
  5
48
100
AcDbEntity
  8
Keine
370
               5
  6
Continuous
 62
               7
100
AcDbLine
 10
-6.0
 20
28.0
 30
0.0
 11
-6.0
 21
-13.0
 31
0.0
  0
LINE
  5
49
100
AcDbEntity
  8
Keine
370
               5
  6
Continuous
 62
               7
100
AcDbLine
 10
-6.0
 20
-12.5
 30
0.0
 11
-17.5
 21
-12.5
 31
0.0
  0
LINE
  5
4A
100
AcDbEntity
  8
Keine
370
               5
  6
Continuous
 62
               7
100
AcDbLine
 10
-17.0
 20
-12.5
 30
0.0
 11
-17.0
 21
-28.0
 31
0.0
  0
LINE
  5
4B
100
AcDbEntity
  8
Keine
370
               5
  6
Continuous
 62
               7
100
AcDbLine
 10
-17.0
 20
-28.0
 30
0.0
 11
17.5
 21
-28.0
 31
0.0
  0
LINE
  5
4C
100
AcDbEntity
  8
Keine
370
               5
  6
Continuous
 62
               7
100
AcDbLine
 10
16.5
 20
-28.0
 30
0.0
 11
16.5
 21
-13.5
 31
0.0
  0
LINE
  5
4D
100
AcDbEntity
  8
Keine
370
               5
  6
Continuous
 62
               7
100
AcDbLine
 10
16.5
 20
-13.5
 30
0.0
 11
7.0
 21
-13.5
 31
0.0
  0
LINE
  5
4E
100
AcDbEntity
  8
Keine
370
               5
  6
Continuous
 62
               7
100
AcDbLine
 10
7.5
 20
-13.5
 30
0.0
 11
7.0
 21
28.0
 31
0.0
  0
ENDBLK
  5
4F
100
AcDbEntity
  8
Keine
100
AcDbBlockEnd
  0
BLOCK
  5
50
100
AcDbEntity
  8
Keine
100
AcDbBlockBegin
  2
Tür1 von oben
 70
               0
 10
0.0
 20
0.0
 30
0.0
  3
Tür1 von oben
  1

  0
LINE
  5
51
100
AcDbEntity
  8
Keine
370
               5
  6
Continuous
 62
               7
100
AcDbLine
 10
11.0
 20
32.0
 30
0.0
 11
11.0
 21
-32.0
 31
0.0
  0
LINE
  5
52
100
AcDbEntity
  8
Keine
370
               5
  6
Continuous
 62
               7
100
AcDbLine
 10
-11.0
 20
31.5
 30
0.0
 11
-11.0
 21
-32.0
 31
0.0
  0
LINE
  5
53
100
AcDbEntity
  8
Keine
370
               5
  6
Continuous
 62
               7
100
AcDbLine
 10
-11.0
 20
23.0
 30
0.0
 11
11.0
 21
23.0
 31
0.0
  0
ENDBLK
  5
54
100
AcDbEntity
  8
Keine
100
AcDbBlockEnd
  0
BLOCK
  5
55
100
AcDbEntity
  8
Keine
100
AcDbBlockBegin
  2
Tür oben2
 70
               0
 10
0.0
 20
0.0
 30
0.0
  3
Tür oben2
  1

  0
LINE
  5
56
100
AcDbEntity
  8
Keine
370
               5
  6
Continuous
 62
               7
100
AcDbLine
 10
-10.75
 20
34.0
 30
0.0
 11
-10.75
 21
-34.0
 31
0.0
  0
LINE
  5
57
100
AcDbEntity
  8
Keine
370
               5
  6
Continuous
 62
               7
100
AcDbLine
 10
10.75
 20
34.0
 30
0.0
 11
10.75
 21
-34.0
 31
0.0
  0
LINE
  5
58
100
AcDbEntity
  8
Keine
370
               5
  6
Continuous
 62
               7
100
AcDbLine
 10
-10.75
 20
22.0
 30
0.0
 11
10.75
 21
22.0
 31
0.0
  0
ENDBLK
  5
59
100
AcDbEntity
  8
Keine
100
AcDbBlockEnd
  0
BLOCK
  5
5A
100
AcDbEntity
  8
Keine
100
AcDbBlockBegin
  2
Tür oben 3
 70
               0
 10
0.0
 20
0.0
 30
0.0
  3
Tür oben 3
  1

  0
LINE
  5
5B
100
AcDbEntity
  8
Keine
370
               5
  6
Continuous
 62
               7
100
AcDbLine
 10
-10.75
 20
30.0
 30
0.0
 11
-10.75
 21
-29.5
 31
0.0
  0
LINE
  5
5C
100
AcDbEntity
  8
Keine
370
               5
  6
Continuous
 62
               7
100
AcDbLine
 10
10.75
 20
30.0
 30
0.0
 11
10.75
 21
-30.0
 31
0.0
  0
LINE
  5
5D
100
AcDbEntity
  8
Keine
370
               5
  6
Continuous
 62
               7
100
AcDbLine
 10
-10.75
 20
19.0
 30
0.0
 11
10.75
 21
19.0
 31
0.0
  0
ENDBLK
  5
5E
100
AcDbEntity
  8
Keine
100
AcDbBlockEnd
  0
BLOCK
  5
5F
100
AcDbEntity
  8
Keine
100
AcDbBlockBegin
  2
Doppelfenster
 70
               0
 10
0.0
 20
0.0
 30
0.0
  3
Doppelfenster
  1

  0
WIPEOUT
  5
60
100
AcDbEntity
  8
Keine
370
               5
  6
Continuous
 62
               7
 92
        0
100
AcDbWipeout
 90
        0
 10
-28.25
 20
-25.5
 30
0.0
 11
51.0
 21
0.0
 31
0.0
 12
0.0
 22
51.0
 32
0.0
 13
1.0
 23
1.0
340
0
 70
               7
280
               1
281
              50
282
              50
283
               0
360
0
 71
               2
 91
        5
 14
-0.5
 24
-0.5
 14
0.0784313725490197
 24
-0.5
 14
0.0784313725490197
 24
0.5
 14
-0.5
 24
0.5
 14
-0.5
 24
-0.5
  0
POLYLINE
  5
61
100
AcDbEntity
  8
Keine
370
               5
  6
Continuous
 62
               7
100
AcDb2dPolyline
 66
               1
 10
0.0
 20
0.0
 30
0.0
 70
               1
 75
               5
  0
VERTEX
  5
62
100
AcDbEntity
  8
Keine
370
               5
  6
Continuous
 62
               7
100
AcDbVertex
100
AcDb2dVertex
 10
-28.25
 20
25.5
 30
0.0
  0
VERTEX
  5
63
100
AcDbEntity
  8
Keine
370
               5
  6
Continuous
 62
               7
100
AcDbVertex
100
AcDb2dVertex
 10
1.25
 20
25.5
 30
0.0
  0
VERTEX
  5
64
100
AcDbEntity
  8
Keine
370
               5
  6
Continuous
 62
               7
100
AcDbVertex
100
AcDb2dVertex
 10
1.25
 20
-25.5
 30
0.0
  0
VERTEX
  5
65
100
AcDbEntity
  8
Keine
370
               5
  6
Continuous
 62
               7
100
AcDbVertex
100
AcDb2dVertex
 10
-28.25
 20
-25.5
 30
0.0
  0
SEQEND
  5
66
100
AcDbEntity
  8
Keine
370
               5
  6
Continuous
 62
               7
  0
WIPEOUT
  5
67
100
AcDbEntity
  8
Keine
370
               5
  6
Continuous
 62
               7
 92
        0
100
AcDbWipeout
 90
        0
 10
5.75
 20
-25.0
 30
0.0
 11
49.5
 21
0.0
 31
0.0
 12
0.0
 22
49.5
 32
0.0
 13
1.0
 23
1.0
340
0
 70
               7
280
               1
281
              50
282
              50
283
               0
360
0
 71
               2
 91
        5
 14
-0.5
 24
-0.5
 14
-0.0454545454545455
 24
-0.5
 14
-0.0454545454545455
 24
0.5
 14
-0.5
 24
0.5
 14
-0.5
 24
-0.5
  0
POLYLINE
  5
68
100
AcDbEntity
  8
Keine
370
               5
  6
Continuous
 62
               7
100
AcDb2dPolyline
 66
               1
 10
0.0
 20
0.0
 30
0.0
 70
               1
 75
               5
  0
VERTEX
  5
69
100
AcDbEntity
  8
Keine
370
               5
  6
Continuous
 62
               7
100
AcDbVertex
100
AcDb2dVertex
 10
5.75
 20
24.5
 30
0.0
  0
VERTEX
  5
6A
100
AcDbEntity
  8
Keine
370
               5
  6
Continuous
 62
               7
100
AcDbVertex
100
AcDb2dVertex
 10
28.25
 20
24.5
 30
0.0
  0
VERTEX
  5
6B
100
AcDbEntity
  8
Keine
370
               5
  6
Continuous
 62
               7
100
AcDbVertex
100
AcDb2dVertex
 10
28.25
 20
-25.0
 30
0.0
  0
VERTEX
  5
6C
100
AcDbEntity
  8
Keine
370
               5
  6
Continuous
 62
               7
100
AcDbVertex
100
AcDb2dVertex
 10
5.75
 20
-25.0
 30
0.0
  0
SEQEND
  5
6D
100
AcDbEntity
  8
Keine
370
               5
  6
Continuous
 62
               7
  0
ENDBLK
  5
6E
100
AcDbEntity
  8
Keine
100
AcDbBlockEnd
  0
BLOCK
  5
6F
100
AcDbEntity
  8
Keine
100
AcDbBlockBegin
  2
Tür oben4
 70
               0
 10
0.0
 20
0.0
 30
0.0
  3
Tür oben4
  1

  0
LINE
  5
70
100
AcDbEntity
  8
Keine
370
               5
  6
Continuous
 62
               7
100
AcDbLine
 10
-10.25
 20
34.0
 30
0.0
 11
-10.25
 21
-34.0
 31
0.0
  0
LINE
  5
71
100
AcDbEntity
  8
Keine
370
               5
  6
Continuous
 62
               7
100
AcDbLine
 10
10.25
 20
34.0
 30
0.0
 11
10.25
 21
-34.0
 31
0.0
  0
LINE
  5
72
100
AcDbEntity
  8
Keine
370
               5
  6
Continuous
 62
               7
100
AcDbLine
 10
-10.25
 20
22.0
 30
0.0
 11
10.25
 21
22.0
 31
0.0
  0
ENDBLK
  5
73
100
AcDbEntity
  8
Keine
100
AcDbBlockEnd
  0
BLOCK
  5
74
100
AcDbEntity
  8
Keine
100
AcDbBlockBegin
  2
Tür oben 5
 70
               0
 10
0.0
 20
0.0
 30
0.0
  3
Tür oben 5
  1

  0
LINE
  5
75
100
AcDbEntity
  8
Keine
370
               5
  6
Continuous
 62
               7
100
AcDbLine
 10
-10.0
 20
29.75
 30
0.0
 11
-10.0
 21
-29.25
 31
0.0
  0
LINE
  5
76
100
AcDbEntity
  8
Keine
370
               5
  6
Continuous
 62
               7
100
AcDbLine
 10
10.0
 20
29.75
 30
0.0
 11
10.0
 21
-29.75
 31
0.0
  0
LINE
  5
77
100
AcDbEntity
  8
Keine
370
               5
  6
Continuous
 62
               7
100
AcDbLine
 10
-10.0
 20
18.25
 30
0.0
 11
10.0
 21
18.25
 31
0.0
  0
ENDBLK
  5
78
100
AcDbEntity
  8
Keine
100
AcDbBlockEnd
  0
BLOCK
  5
79
100
AcDbEntity
  8
Keine
100
AcDbBlockBegin
  2
Tür oben 6
 70
               0
 10
0.0
 20
0.0
 30
0.0
  3
Tür oben 6
  1

  0
LINE
  5
7A
100
AcDbEntity
  8
Keine
370
               5
  6
Continuous
 62
               7
100
AcDbLine
 10
9.75
 20
26.25
 30
0.0
 11
9.75
 21
-26.25
 31
0.0
  0
LINE
  5
7B
100
AcDbEntity
  8
Keine
370
               5
  6
Continuous
 62
               7
100
AcDbLine
 10
-9.75
 20
26.25
 30
0.0
 11
-9.75
 21
-26.25
 31
0.0
  0
LINE
  5
7C
100
AcDbEntity
  8
Keine
370
               5
  6
Continuous
 62
               7
100
AcDbLine
 10
-9.75
 20
13.125
 30
0.0
 11
9.75
 21
13.125
 31
0.0
  0
ENDBLK
  5
7D
100
AcDbEntity
  8
Keine
100
AcDbBlockEnd
  0
BLOCK
  5
7E
100
AcDbEntity
  8
Keine
100
AcDbBlockBegin
  2
Treppenhaus
 70
               0
 10
0.0
 20
0.0
 30
0.0
  3
Treppenhaus
  1

  0
LINE
  5
7F
100
AcDbEntity
  8
Keine
370
               5
  6
Continuous
 62
               7
100
AcDbLine
 10
-32.0
 20
34.0
 30
0.0
 11
15.0
 21
6.8645373480874241
 31
0.0
  0
LINE
  5
80
100
AcDbEntity
  8
Keine
370
               5
  6
Continuous
 62
               7
100
AcDbLine
 10
14.0
 20
7.4418876172770752
 30
0.0
 11
-38.0
 21
-33.0
 31
0.0
  0
LINE
  5
81
100
AcDbEntity
  8
Keine
370
               5
  6
Continuous
 62
               7
100
AcDbLine
 10
-53.0
 20
34.0
 30
0.0
 11
-53.0
 21
-34.0
 31
0.0
  0
LINE
  5
82
100
AcDbEntity
  8
Keine
370
               5
  6
Continuous
 62
               7
100
AcDbLine
 10
53.0
 20
34.0
 30
0.0
 11
53.0
 21
-33.0
 31
0.0
  0
LINE
  5
83
100
AcDbEntity
  8
Keine
370
               5
  6
Continuous
 62
               7
100
AcDbLine
 10
-53.0
 20
-4.0
 30
0.0
 11
-14.0
 21
23.607695154586736
 31
0.0
  0
LINE
  5
84
100
AcDbEntity
  8
Keine
370
               5
  6
Continuous
 62
               7
100
AcDbLine
 10
14.0
 20
34.0
 30
0.0
 11
14.0
 21
7.4418876172770752
 31
0.0
  0
LINE
  5
85
100
AcDbEntity
  8
Keine
370
               5
  6
Continuous
 62
               7
100
AcDbLine
 10
14.0
 20
7.4418876172770752
 30
0.0
 11
53.0
 21
7.4418876172770752
 31
0.0
  0
LINE
  5
86
100
AcDbEntity
  8
Keine
370
               5
  6
Continuous
 62
               7
100
AcDbLine
 10
14.0
 20
15.0
 30
0.0
 11
53.0
 21
15.0
 31
0.0
  0
LINE
  5
87
100
AcDbEntity
  8
Keine
370
               5
  6
Continuous
 62
               7
100
AcDbLine
 10
14.0
 20
24.0
 30
0.0
 11
53.0
 21
24.0
 31
0.0
  0
LINE
  5
88
100
AcDbEntity
  8
Keine
370
               5
  6
Continuous
 62
               7
100
AcDbLine
 10
-53.0
 20
-4.0
 30
0.0
 11
53.0
 21
-4.0
 31
0.0
  0
LINE
  5
89
100
AcDbEntity
  8
Keine
370
               5
  6
Continuous
 62
               7
100
AcDbLine
 10
-12.0
 20
34.0
 30
0.0
 11
14.0
 21
18.988893001069869
 31
0.0
  0
LINE
  5
8A
100
AcDbEntity
  8
Keine
370
               5
  6
Continuous
 62
               7
100
AcDbLine
 10
-4.0
 20
17.834192462690339
 30
0.0
 11
-53.0
 21
-18.0
 31
0.0
  0
ENDBLK
  5
8B
100
AcDbEntity
  8
Keine
100
AcDbBlockEnd
  0
BLOCK
  5
8C
100
AcDbEntity
  8
Keine
100
AcDbBlockBegin
  2
Treppenhaus 2
 70
               0
 10
0.0
 20
0.0
 30
0.0
  3
Treppenhaus 2
  1

  0
LINE
  5
8D
100
AcDbEntity
  8
Keine
370
               5
  6
Continuous
 62
               7
100
AcDbLine
 10
-53.0
 20
29.75
 30
0.0
 11
-53.0
 21
-29.75
 31
0.0
  0
LINE
  5
8E
100
AcDbEntity
  8
Keine
370
               5
  6
Continuous
 62
               7
100
AcDbLine
 10
53.0
 20
30.25
 30
0.0
 11
53.0
 21
-29.75
 31
0.0
  0
LINE
  5
8F
100
AcDbEntity
  8
Keine
370
               5
  6
Continuous
 62
               7
100
AcDbLine
 10
14.337168574084075
 20
6.25
 30
0.0
 11
-36.0
 21
-30.75
 31
0.0
  0
LINE
  5
90
100
AcDbEntity
  8
Keine
370
               5
  6
Continuous
 62
               7
100
AcDbLine
 10
-14.0
 20
22.610471904319297
 30
0.0
 11
-53.0
 21
-3.75
 31
0.0
  0
LINE
  5
91
100
AcDbEntity
  8
Keine
370
               5
  6
Continuous
 62
               7
100
AcDbLine
 10
-4.0
 20
16.836969212423014
 30
0.0
 11
-53.0
 21
-15.25
 31
0.0
  0
LINE
  5
92
100
AcDbEntity
  8
Keine
370
               5
  6
Continuous
 62
               7
100
AcDbLine
 10
-53.0
 20
-3.75
 30
0.0
 11
53.0
 21
-3.75
 31
0.0
  0
LINE
  5
93
100
AcDbEntity
  8
Keine
370
               5
  6
Continuous
 62
               7
100
AcDbLine
 10
14.337168574084075
 20
30.75
 30
0.0
 11
14.337168574084075
 21
-3.75
 31
0.0
  0
LINE
  5
94
100
AcDbEntity
  8
Keine
370
               5
  6
Continuous
 62
               7
100
AcDbLine
 10
53.0
 20
6.25
 30
0.0
 11
14.337168574084075
 21
6.25
 31
0.0
  0
LINE
  5
95
100
AcDbEntity
  8
Keine
370
               5
  6
Continuous
 62
               7
100
AcDbLine
 10
14.337168574084075
 20
18.25
 30
0.0
 11
53.0
 21
18.25
 31
0.0
  0
LINE
  5
96
100
AcDbEntity
  8
Keine
370
               5
  6
Continuous
 62
               7
100
AcDbLine
 10
14.337168574084075
 20
14.25
 30
0.0
 11
-13.5
 21
30.321796769724244
 31
0.0
  0
ENDBLK
  5
97
100
AcDbEntity
  8
Keine
100
AcDbBlockEnd
  0
ENDSEC
  0
SECTION
  2
ENTITIES
  0
WIPEOUT
  5
98
100
AcDbEntity
  8
Keine
370
               5
  6
Continuous
 62
               7
 92
        0
100
AcDbWipeout
 90
        0
 10
-28.0
 20
714.0
 30
0.0
 11
135.0
 21
0.0
 31
0.0
 12
0.0
 22
135.0
 32
0.0
 13
1.0
 23
1.0
340
0
 70
               7
280
               1
281
              50
282
              50
283
               0
360
0
 71
               2
 91
        5
 14
-0.5
 24
0.5
 14
-0.5
 24
0.4259259259259259
 14
0.5
 24
0.4259259259259259
 14
0.5
 24
0.5
 14
-0.5
 24
0.5
  0
LINE
  5
99
100
AcDbEntity
  8
Keine
370
               5
  6
Continuous
 62
               7
100
AcDbLine
 10
107.0
 20
714.0
 30
0.0
 11
107.0
 21
724.0
 31
0.0
  0
LINE
  5
9A
100
AcDbEntity
  8
Keine
370
               5
  6
Continuous
 62
               7
100
AcDbLine
 10
-28.0
 20
724.0
 30
0.0
 11
107.0
 21
724.0
 31
0.0
  0
LINE
  5
9B
100
AcDbEntity
  8
Keine
370
               5
  6
Continuous
 62
               7
100
AcDbLine
 10
-28.0
 20
714.0
 30
0.0
 11
107.0
 21
714.0
 31
0.0
  0
LINE
  5
9C
100
AcDbEntity
  8
Keine
370
               5
  6
Continuous
 62
               7
100
AcDbLine
 10
-28.0
 20
714.0
 30
0.0
 11
-28.0
 21
724.0
 31
0.0
  0
WIPEOUT
  5
9D
100
AcDbEntity
  8
Keine
370
               5
  6
Continuous
 62
               7
 92
        0
100
AcDbWipeout
 90
        0
 10
96.0
 20
709.0
 30
0.0
 11
224.0
 21
0.0
 31
0.0
 12
0.0
 22
224.0
 32
0.0
 13
1.0
 23
1.0
340
0
 70
               7
280
               1
281
              50
282
              50
283
               0
360
0
 71
               2
 91
        5
 14
-0.5
 24
0.5
 14
-0.5
 24
0.4553571428571429
 14
0.5
 24
0.4553571428571429
 14
0.5
 24
0.5
 14
-0.5
 24
0.5
  0
LINE
  5
9E
100
AcDbEntity
  8
Keine
370
               5
  6
Continuous
 62
               7
100
AcDbLine
 10
320.0
 20
709.0
 30
0.0
 11
320.0
 21
719.0
 31
0.0
  0
LINE
  5
9F
100
AcDbEntity
  8
Keine
370
               5
  6
Continuous
 62
               7
100
AcDbLine
 10
96.0
 20
719.0
 30
0.0
 11
320.0
 21
719.0
 31
0.0
  0
LINE
  5
A0
100
AcDbEntity
  8
Keine
370
               5
  6
Continuous
 62
               7
100
AcDbLine
 10
96.0
 20
709.0
 30
0.0
 11
320.0
 21
709.0
 31
0.0
  0
LINE
  5
A1
100
AcDbEntity
  8
Keine
370
               5
  6
Continuous
 62
               7
100
AcDbLine
 10
96.0
 20
709.0
 30
0.0
 11
96.0
 21
719.0
 31
0.0
  0
WIPEOUT
  5
A2
100
AcDbEntity
  8
Keine
370
               5
  6
Continuous
 62
               7
 92
        0
100
AcDbWipeout
 90
        0
 10
-191.0
 20
622.0
 30
0.0
 11
1019.0
 21
0.0
 31
0.0
 12
0.0
 22
1019.0
 32
0.0
 13
1.0
 23
1.0
340
0
 70
               7
280
               1
281
              50
282
              50
283
               0
360
0
 71
               2
 91
        5
 14
-0.5
 24
0.5
 14
-0.5
 24
0.4872423945044161
 14
0.5
 24
0.4872423945044161
 14
0.5
 24
0.5
 14
-0.5
 24
0.5
  0
LINE
  5
A3
100
AcDbEntity
  8
Keine
370
               5
  6
Continuous
 62
               7
100
AcDbLine
 10
828.0
 20
622.0
 30
0.0
 11
828.0
 21
635.0
 31
0.0
  0
LINE
  5
A4
100
AcDbEntity
  8
Keine
370
               5
  6
Continuous
 62
               7
100
AcDbLine
 10
-191.0
 20
635.0
 30
0.0
 11
828.0
 21
635.0
 31
0.0
  0
LINE
  5
A5
100
AcDbEntity
  8
Keine
370
               5
  6
Continuous
 62
               7
100
AcDbLine
 10
-191.0
 20
622.0
 30
0.0
 11
828.0
 21
622.0
 31
0.0
  0
LINE
  5
A6
100
AcDbEntity
  8
Keine
370
               5
  6
Continuous
 62
               7
100
AcDbLine
 10
-191.0
 20
622.0
 30
0.0
 11
-191.0
 21
635.0
 31
0.0
  0
WIPEOUT
  5
A7
100
AcDbEntity
  8
Keine
370
               5
  6
Continuous
 62
               7
 92
        0
100
AcDbWipeout
 90
        0
 10
-347.0
 20
545.0
 30
0.0
 11
1307.0
 21
0.0
 31
0.0
 12
0.0
 22
1307.0
 32
0.0
 13
1.0
 23
1.0
340
0
 70
               7
280
               1
281
              50
282
              50
283
               0
360
0
 71
               2
 91
        5
 14
-0.5
 24
0.5
 14
-0.5
 24
0.4900535577658761
 14
0.5
 24
0.4900535577658761
 14
0.5
 24
0.5
 14
-0.5
 24
0.5
  0
LINE
  5
A8
100
AcDbEntity
  8
Keine
370
               5
  6
Continuous
 62
               7
100
AcDbLine
 10
960.0
 20
545.0
 30
0.0
 11
960.0
 21
558.0
 31
0.0
  0
LINE
  5
A9
100
AcDbEntity
  8
Keine
370
               5
  6
Continuous
 62
               7
100
AcDbLine
 10
-347.0
 20
558.0
 30
0.0
 11
960.0
 21
558.0
 31
0.0
  0
LINE
  5
AA
100
AcDbEntity
  8
Keine
370
               5
  6
Continuous
 62
               7
100
AcDbLine
 10
-347.0
 20
545.0
 30
0.0
 11
960.0
 21
545.0
 31
0.0
  0
LINE
  5
AB
100
AcDbEntity
  8
Keine
370
               5
  6
Continuous
 62
               7
100
AcDbLine
 10
-347.0
 20
545.0
 30
0.0
 11
-347.0
 21
558.0
 31
0.0
  0
WIPEOUT
  5
AC
100
AcDbEntity
  8
Keine
370
               5
  6
Continuous
 62
               7
 92
        0
100
AcDbWipeout
 90
        0
 10
-537.0
 20
464.0
 30
0.0
 11
1671.0
 21
0.0
 31
0.0
 12
0.0
 22
1671.0
 32
0.0
 13
1.0
 23
1.0
340
0
 70
               7
280
               1
281
              50
282
              50
283
               0
360
0
 71
               2
 91
        5
 14
-0.5
 24
0.5
 14
-0.5
 24
0.4922202274087373
 14
0.5
 24
0.4922202274087373
 14
0.5
 24
0.5
 14
-0.5
 24
0.5
  0
LINE
  5
AD
100
AcDbEntity
  8
Keine
370
               5
  6
Continuous
 62
               7
100
AcDbLine
 10
1134.0
 20
464.0
 30
0.0
 11
1134.0
 21
477.0
 31
0.0
  0
LINE
  5
AE
100
AcDbEntity
  8
Keine
370
               5
  6
Continuous
 62
               7
100
AcDbLine
 10
-537.0
 20
477.0
 30
0.0
 11
1134.0
 21
477.0
 31
0.0
  0
LINE
  5
AF
100
AcDbEntity
  8
Keine
370
               5
  6
Continuous
 62
               7
100
AcDbLine
 10
-537.0
 20
464.0
 30
0.0
 11
1134.0
 21
464.0
 31
0.0
  0
LINE
  5
B0
100
AcDbEntity
  8
Keine
370
               5
  6
Continuous
 62
               7
100
AcDbLine
 10
-537.0
 20
464.0
 30
0.0
 11
-537.0
 21
477.0
 31
0.0
  0
WIPEOUT
  5
B1
100
AcDbEntity
  8
Keine
370
               5
  6
Continuous
 62
               7
 92
        0
100
AcDbWipeout
 90
        0
 10
-859.0
 20
391.0
 30
0.0
 11
1982.0
 21
0.0
 31
0.0
 12
0.0
 22
1982.0
 32
0.0
 13
1.0
 23
1.0
340
0
 70
               7
280
               1
281
              50
282
              50
283
               0
360
0
 71
               2
 91
        5
 14
-0.5
 24
0.5
 14
0.5
 24
0.5
 14
0.5
 24
0.4934409687184662
 14
-0.5
 24
0.4934409687184662
 14
-0.5
 24
0.5
  0
LINE
  5
B2
100
AcDbEntity
  8
Keine
370
               5
  6
Continuous
 62
               7
100
AcDbLine
 10
-859.0
 20
404.0
 30
0.0
 11
1122.9999999999968
 21
404.0
 31
0.0
  0
LINE
  5
B3
100
AcDbEntity
  8
Keine
370
               5
  6
Continuous
 62
               7
100
AcDbLine
 10
-859.0
 20
391.0
 30
0.0
 11
1123.0
 21
391.0
 31
0.0
  0
LINE
  5
B4
100
AcDbEntity
  8
Keine
370
               5
  6
Continuous
 62
               7
100
AcDbLine
 10
-859.0
 20
391.0
 30
0.0
 11
-859.0
 21
404.0
 31
0.0
  0
WIPEOUT
  5
B5
100
AcDbEntity
  8
Keine
370
               5
  6
Continuous
 62
               7
 92
        0
100
AcDbWipeout
 90
        0
 10
-1114.0290172788473
 20
308.0
 30
0.0
 11
2237.0290172788473
 21
0.0
 31
0.0
 12
0.0
 22
2237.0290172788473
 32
0.0
 13
1.0
 23
1.0
340
0
 70
               7
280
               1
281
              50
282
              50
283
               0
360
0
 71
               2
 91
        5
 14
-0.5
 24
0.5
 14
0.5
 24
0.5
 14
0.5
 24
0.4941887208884696
 14
-0.5
 24
0.4941887208884696
 14
-0.5
 24
0.5
  0
LINE
  5
B6
100
AcDbEntity
  8
Keine
370
               5
  6
Continuous
 62
               7
100
AcDbLine
 10
-1114.0290172788473
 20
321.0
 30
0.0
 11
1122.9999999999941
 21
321.0
 31
0.0
  0
LINE
  5
B7
100
AcDbEntity
  8
Keine
370
               5
  6
Continuous
 62
               7
100
AcDbLine
 10
-1114.0290172788473
 20
308.0
 30
0.0
 11
1123.0
 21
308.0
 31
0.0
  0
WIPEOUT
  5
B8
100
AcDbEntity
  8
Keine
370
               5
  6
Continuous
 62
               7
 92
        0
100
AcDbWipeout
 90
        0
 10
-1149.0
 20
236.0
 30
0.0
 11
724.0
 21
0.0
 31
0.0
 12
0.0
 22
724.0
 32
0.0
 13
1.0
 23
1.0
340
0
 70
               7
280
               1
281
              50
282
              50
283
               0
360
0
 71
               2
 91
        5
 14
-0.5
 24
0.5
 14
-0.5
 24
0.4820441988950276
 14
0.5
 24
0.4820441988950276
 14
0.5
 24
0.5
 14
-0.5
 24
0.5
  0
LINE
  5
B9
100
AcDbEntity
  8
Keine
370
               5
  6
Continuous
 62
               7
100
AcDbLine
 10
-425.0
 20
236.0
 30
0.0
 11
-425.0
 21
249.0
 31
0.0
  0
LINE
  5
BA
100
AcDbEntity
  8
Keine
370
               5
  6
Continuous
 62
               7
100
AcDbLine
 10
-1149.0
 20
249.0
 30
0.0
 11
-425.0
 21
249.0
 31
0.0
  0
LINE
  5
BB
100
AcDbEntity
  8
Keine
370
               5
  6
Continuous
 62
               7
100
AcDbLine
 10
-715.5
 20
236.0
 30
0.0
 11
-425.0
 21
236.0
 31
0.0
  0
LINE
  5
BC
100
AcDbEntity
  8
Keine
370
               5
  6
Continuous
 62
               7
100
AcDbLine
 10
-773.0
 20
236.0
 30
0.0
 11
-722.5
 21
236.0
 31
0.0
  0
LINE
  5
BD
100
AcDbEntity
  8
Keine
370
               5
  6
Continuous
 62
               7
100
AcDbLine
 10
-875.5
 20
236.0
 30
0.0
 11
-780.0
 21
236.0
 31
0.0
  0
LINE
  5
BE
100
AcDbEntity
  8
Keine
370
               5
  6
Continuous
 62
               7
100
AcDbLine
 10
-932.0
 20
236.0
 30
0.0
 11
-882.5
 21
236.0
 31
0.0
  0
LINE
  5
BF
100
AcDbEntity
  8
Keine
370
               5
  6
Continuous
 62
               7
100
AcDbLine
 10
-1033.5
 20
236.0
 30
0.0
 11
-939.0
 21
236.0
 31
0.0
  0
LINE
  5
C0
100
AcDbEntity
  8
Keine
370
               5
  6
Continuous
 62
               7
100
AcDbLine
 10
-1089.5
 20
236.0
 30
0.0
 11
-1040.5
 21
236.0
 31
0.0
  0
LINE
  5
C1
100
AcDbEntity
  8
Keine
370
               5
  6
Continuous
 62
               7
100
AcDbLine
 10
-1149.0
 20
236.0
 30
0.0
 11
-1096.5
 21
236.0
 31
0.0
  0
LINE
  5
C2
100
AcDbEntity
  8
Keine
370
               5
  6
Continuous
 62
               7
100
AcDbLine
 10
-1149.0
 20
236.0
 30
0.0
 11
-1149.0
 21
249.0
 31
0.0
  0
WIPEOUT
  5
C3
100
AcDbEntity
  8
Keine
370
               5
  6
Continuous
 62
               7
 92
        0
100
AcDbWipeout
 90
        0
 10
-425.0
 20
233.0
 30
0.0
 11
308.0
 21
0.0
 31
0.0
 12
0.0
 22
308.0
 32
0.0
 13
1.0
 23
1.0
340
0
 70
               7
280
               1
281
              50
282
              50
283
               0
360
0
 71
               2
 91
        5
 14
-0.5
 24
0.5
 14
-0.5
 24
0.448051948051948
 14
0.5
 24
0.448051948051948
 14
0.5
 24
0.5
 14
-0.5
 24
0.5
  0
LINE
  5
C4
100
AcDbEntity
  8
Keine
370
               5
  6
Continuous
 62
               7
100
AcDbLine
 10
-117.0
 20
233.0
 30
0.0
 11
-117.0
 21
249.0
 31
0.0
  0
LINE
  5
C5
100
AcDbEntity
  8
Keine
370
               5
  6
Continuous
 62
               7
100
AcDbLine
 10
-425.0
 20
249.0
 30
0.0
 11
-117.0
 21
249.0
 31
0.0
  0
LINE
  5
C6
100
AcDbEntity
  8
Keine
370
               5
  6
Continuous
 62
               7
100
AcDbLine
 10
-425.0
 20
233.0
 30
0.0
 11
-117.0
 21
233.0
 31
0.0
  0
LINE
  5
C7
100
AcDbEntity
  8
Keine
370
               5
  6
Continuous
 62
               7
100
AcDbLine
 10
-425.0
 20
233.0
 30
0.0
 11
-425.0
 21
249.0
 31
0.0
  0
WIPEOUT
  5
C8
100
AcDbEntity
  8
Keine
370
               5
  6
Continuous
 62
               7
 92
        0
100
AcDbWipeout
 90
        0
 10
-117.0
 20
236.0
 30
0.0
 11
1240.0
 21
0.0
 31
0.0
 12
0.0
 22
1240.0
 32
0.0
 13
1.0
 23
1.0
340
0
 70
               7
280
               1
281
              50
282
              50
283
               0
360
0
 71
               2
 91
        7
 14
-0.5
 24
0.4895161290322581
 14
-0.5
 24
0.5
 14
0.369758064516129
 24
0.5
 14
0.3778225806451613
 24
0.5
 14
0.5
 24
0.5
 14
0.5
 24
0.4895161290322581
 14
-0.5
 24
0.4895161290322581
  0
LINE
  5
C9
100
AcDbEntity
  8
Keine
370
               5
  6
Continuous
 62
               7
100
AcDbLine
 10
-117.0
 20
249.0
 30
0.0
 11
1122.9999999999982
 21
249.0
 31
0.0
  0
LINE
  5
CA
100
AcDbEntity
  8
Keine
370
               5
  6
Continuous
 62
               7
100
AcDbLine
 10
971.5
 20
236.0
 30
0.0
 11
1123.0
 21
236.0
 31
0.0
  0
LINE
  5
CB
100
AcDbEntity
  8
Keine
370
               5
  6
Continuous
 62
               7
100
AcDbLine
 10
-117.0
 20
236.0
 30
0.0
 11
961.5
 21
236.0
 31
0.0
  0
LINE
  5
CC
100
AcDbEntity
  8
Keine
370
               5
  6
Continuous
 62
               7
100
AcDbLine
 10
-117.0
 20
236.0
 30
0.0
 11
-117.0
 21
249.0
 31
0.0
  0
WIPEOUT
  5
CD
100
AcDbEntity
  8
Keine
370
               5
  6
Continuous
 62
               7
 92
        0
100
AcDbWipeout
 90
        0
 10
-1117.5439547170213
 20
108.0
 30
0.0
 11
449.87534043750327
 21
0.0
 31
0.0
 12
0.0
 22
449.87534043750327
 32
0.0
 13
1.0
 23
1.0
340
0
 70
               7
280
               1
281
              50
282
              50
283
               0
360
0
 71
               2
 91
        5
 14
-0.5
 24
0.5
 14
-0.5
 24
0.4644345920706834
 14
0.4925948692425723
 24
0.4644345920706834
 14
0.5
 24
0.5
 14
-0.5
 24
0.5
  0
LINE
  5
CE
100
AcDbEntity
  8
Keine
370
               5
  6
Continuous
 62
               7
100
AcDbLine
 10
-715.5
 20
124.0
 30
0.0
 11
-671.0
 21
124.0
 31
0.0
  0
LINE
  5
CF
100
AcDbEntity
  8
Keine
370
               5
  6
Continuous
 62
               7
100
AcDbLine
 10
-1117.5439547170213
 20
108.0
 30
0.0
 11
-667.66861427951801
 21
108.0
 31
0.0
  0
LINE
  5
D0
100
AcDbEntity
  8
Keine
370
               5
  6
Continuous
 62
               7
100
AcDbLine
 10
-773.0
 20
124.0
 30
0.0
 11
-722.5
 21
124.0
 31
0.0
  0
LINE
  5
D1
100
AcDbEntity
  8
Keine
370
               5
  6
Continuous
 62
               7
100
AcDbLine
 10
-875.5
 20
124.0
 30
0.0
 11
-780.0
 21
124.0
 31
0.0
  0
LINE
  5
D2
100
AcDbEntity
  8
Keine
370
               5
  6
Continuous
 62
               7
100
AcDbLine
 10
-932.0
 20
124.0
 30
0.0
 11
-882.5
 21
124.0
 31
0.0
  0
LINE
  5
D3
100
AcDbEntity
  8
Keine
370
               5
  6
Continuous
 62
               7
100
AcDbLine
 10
-1033.5
 20
124.0
 30
0.0
 11
-939.0
 21
124.0
 31
0.0
  0
LINE
  5
D4
100
AcDbEntity
  8
Keine
370
               5
  6
Continuous
 62
               7
100
AcDbLine
 10
-1089.5
 20
124.0
 30
0.0
 11
-1040.5
 21
124.0
 31
0.0
  0
LINE
  5
D5
100
AcDbEntity
  8
Keine
370
               5
  6
Continuous
 62
               7
100
AcDbLine
 10
-1117.5439547170213
 20
124.0
 30
0.0
 11
-1096.5
 21
124.0
 31
0.0
  0
WIPEOUT
  5
D6
100
AcDbEntity
  8
Keine
370
               5
  6
Continuous
 62
               7
 92
        0
100
AcDbWipeout
 90
        0
 10
-671.0
 20
108.0
 30
0.0
 11
89.81639819802956
 21
0.0
 31
0.0
 12
0.0
 22
89.81639819802956
 32
0.0
 13
1.0
 23
1.0
340
0
 70
               7
280
               1
281
              50
282
              50
283
               0
360
0
 71
               2
 91
        5
 14
-0.4629089365937736
 24
0.5
 14
-0.5
 24
0.3218588106291823
 14
0.446375068532468
 24
-0.0900926897908341
 14
0.5
 24
0.0808514040709448
 14
-0.4629089365937736
 24
0.5
  0
LINE
  5
D7
100
AcDbEntity
  8
Keine
370
               5
  6
Continuous
 62
               7
100
AcDbLine
 10
-671.0
 20
123.99999999999996
 30
0.0
 11
-586.00000000000034
 21
160.99999999999989
 31
0.0
  0
LINE
  5
D8
100
AcDbEntity
  8
Keine
370
               5
  6
Continuous
 62
               7
100
AcDbLine
 10
-667.66861427951801
 20
108.0
 30
0.0
 11
-581.18360180197044
 21
145.64641719610901
 31
0.0
  0
WIPEOUT
  5
D9
100
AcDbEntity
  8
Keine
370
               5
  6
Continuous
 62
               7
 92
        0
100
AcDbWipeout
 90
        0
 10
-586.00000000000034
 20
145.64641719610898
 30
0.0
 11
17.353582803891015
 21
0.0
 31
0.0
 12
0.0
 22
17.353582803891015
 32
0.0
 13
1.0
 23
1.0
340
0
 70
               7
280
               1
281
              50
282
              50
283
               0
360
0
 71
               2
 91
        5
 14
-0.2224551118660079
 24
0.5
 14
-0.5
 24
-0.3847500240957955
 14
0.0762498795210322
 24
-0.5
 14
0.1675458519659273
 24
0.421999807233613
 14
-0.2224551118660079
 24
0.5
  0
LINE
  5
DA
100
AcDbEntity
  8
Keine
370
               5
  6
Continuous
 62
               7
100
AcDbLine
 10
-586.00000000000034
 20
160.99999999999994
 30
0.0
 11
-575.99999999999989
 21
163.0
 31
0.0
  0
LINE
  5
DB
100
AcDbEntity
  8
Keine
370
               5
  6
Continuous
 62
               7
100
AcDbLine
 10
-581.18360180197044
 20
145.64641719610898
 30
0.0
 11
-574.41568778251565
 21
146.99999999999994
 31
0.0
  0
WIPEOUT
  5
DC
100
AcDbEntity
  8
Keine
370
               5
  6
Continuous
 62
               7
 92
        0
100
AcDbWipeout
 90
        0
 10
-575.99999999999989
 20
147.0
 30
0.0
 11
553.99999999999989
 21
0.0
 31
0.0
 12
0.0
 22
553.99999999999989
 32
0.0
 13
1.0
 23
1.0
340
0
 70
               7
280
               1
281
              50
282
              50
283
               0
360
0
 71
               2
 91
        5
 14
-0.4971402306543606
 24
0.5
 14
-0.5
 24
0.4711191335740072
 14
0.5
 24
0.4711191335740072
 14
0.4969082799258084
 24
0.5
 14
-0.4971402306543606
 24
0.5
  0
LINE
  5
DD
100
AcDbEntity
  8
Keine
370
               5
  6
Continuous
 62
               7
100
AcDbLine
 10
-575.99999999999989
 20
163.0
 30
0.0
 11
-21.999999999999996
 21
163.0
 31
0.0
  0
LINE
  5
DE
100
AcDbEntity
  8
Keine
370
               5
  6
Continuous
 62
               7
100
AcDbLine
 10
-574.41568778251565
 20
147.0
 30
0.0
 11
-23.712812921102074
 21
147.0
 31
0.0
  0
WIPEOUT
  5
DF
100
AcDbEntity
  8
Keine
370
               5
  6
Continuous
 62
               7
 92
        0
100
AcDbWipeout
 90
        0
 10
-23.712812921102067
 20
147.0
 30
0.0
 11
41.569219381653042
 21
0.0
 31
0.0
 12
0.0
 22
41.569219381653042
 32
0.0
 13
1.0
 23
1.0
340
0
 70
               7
280
               1
281
              50
282
              50
283
               0
360
0
 71
               2
 91
        5
 14
-0.5
 24
0.5
 14
-0.4587961249554273
 24
0.1150998205402494
 14
0.4162038750445719
 24
-0.3900816650006733
 14
0.5
 24
-0.077350269189626
 14
-0.5
 24
0.5
  0
LINE
  5
E0
100
AcDbEntity
  8
Keine
370
               5
  6
Continuous
 62
               7
100
AcDbLine
 10
-22.000000000000004
 20
163.0
 30
0.0
 11
14.373066958946374
 21
184.0
 31
0.0
  0
LINE
  5
E1
100
AcDbEntity
  8
Keine
370
               5
  6
Continuous
 62
               7
100
AcDbLine
 10
-23.712812921102067
 20
147.0
 30
0.0
 11
17.856406460550971
 21
171.0
 31
0.0
  0
WIPEOUT
  5
E2
100
AcDbEntity
  8
Keine
370
               5
  6
Continuous
 62
               7
 92
        0
100
AcDbWipeout
 90
        0
 10
14.37306695894638
 20
171.0
 30
0.0
 11
947.12693304105358
 21
0.0
 31
0.0
 12
0.0
 22
947.12693304105358
 32
0.0
 13
1.0
 23
1.0
340
0
 70
               7
280
               1
281
              50
282
              50
283
               0
360
0
 71
               2
 91
        5
 14
-0.4963222041522775
 24
0.5
 14
0.5
 24
0.5
 14
0.5
 24
0.4862742790364336
 14
-0.5
 24
0.4862742790364336
 14
-0.4963222041522775
 24
0.5
  0
LINE
  5
E3
100
AcDbEntity
  8
Keine
370
               5
  6
Continuous
 62
               7
100
AcDbLine
 10
14.37306695894638
 20
184.0
 30
0.0
 11
961.49999999999977
 21
184.0
 31
0.0
  0
LINE
  5
E4
100
AcDbEntity
  8
Keine
370
               5
  6
Continuous
 62
               7
100
AcDbLine
 10
806.0
 20
171.0
 30
0.0
 11
961.5
 21
171.0
 31
0.0
  0
LINE
  5
E5
100
AcDbEntity
  8
Keine
370
               5
  6
Continuous
 62
               7
100
AcDbLine
 10
17.856406460550978
 20
171.0
 30
0.0
 11
796.0
 21
171.0
 31
0.0
  0
WIPEOUT
  5
E6
100
AcDbEntity
  8
Keine
370
               5
  6
Continuous
 62
               7
 92
        0
100
AcDbWipeout
 90
        0
 10
-1144.0
 20
36.0
 30
0.0
 11
478.01190202149473
 21
0.0
 31
0.0
 12
0.0
 22
478.01190202149473
 32
0.0
 13
1.0
 23
1.0
340
0
 70
               7
280
               1
281
              50
282
              50
283
               0
360
0
 71
               2
 91
        5
 14
-0.5
 24
0.5
 14
-0.5
 24
0.4790800188076691
 14
0.4957911047549518
 24
0.4790800188076691
 14
0.5
 24
0.5
 14
-0.5
 24
0.5
  0
LINE
  5
E7
100
AcDbEntity
  8
Keine
370
               5
  6
Continuous
 62
               7
100
AcDbLine
 10
-1144.0
 20
46.0
 30
0.0
 11
-668.0
 21
46.0
 31
0.0
  0
LINE
  5
E8
100
AcDbEntity
  8
Keine
370
               5
  6
Continuous
 62
               7
100
AcDbLine
 10
-1144.0
 20
36.0
 30
0.0
 11
-665.98809797850527
 21
36.0
 31
0.0
  0
LINE
  5
E9
100
AcDbEntity
  8
Keine
370
               5
  6
Continuous
 62
               7
100
AcDbLine
 10
-1144.0
 20
36.0
 30
0.0
 11
-1144.0
 21
46.0
 31
0.0
  0
WIPEOUT
  5
EA
100
AcDbEntity
  8
Keine
370
               5
  6
Continuous
 62
               7
 92
        0
100
AcDbWipeout
 90
        0
 10
-668.0
 20
35.99999999999995
 30
0.0
 11
95.01190202149462
 21
0.0
 31
0.0
 12
0.0
 22
95.01190202149462
 32
0.0
 13
1.0
 23
1.0
340
0
 70
               7
280
               1
281
              50
282
              50
283
               0
360
0
 71
               2
 91
        5
 14
-0.4788247369151754
 24
0.5
 14
-0.5
 24
0.3947500282886905
 14
0.4788247369151766
 24
-0.0157248613854163
 14
0.5
 24
0.0895251103258938
 14
-0.4788247369151754
 24
0.5
  0
LINE
  5
EB
100
AcDbEntity
  8
Keine
370
               5
  6
Continuous
 62
               7
100
AcDbLine
 10
-668.0
 20
45.999999999999972
 30
0.0
 11
-575.0
 21
85.000000000000014
 31
0.0
  0
LINE
  5
EC
100
AcDbEntity
  8
Keine
370
               5
  6
Continuous
 62
               7
100
AcDbLine
 10
-665.98809797850527
 20
35.99999999999995
 30
0.0
 11
-572.98809797850538
 21
74.999999999999943
 31
0.0
  0
WIPEOUT
  5
ED
100
AcDbEntity
  8
Keine
370
               5
  6
Continuous
 62
               7
 92
        0
100
AcDbWipeout
 90
        0
 10
-575.0
 20
75.0
 30
0.0
 11
395.04121959736892
 21
0.0
 31
0.0
 12
0.0
 22
395.04121959736892
 32
0.0
 13
1.0
 23
1.0
340
0
 70
               7
280
               1
281
              50
282
              50
283
               0
360
0
 71
               2
 91
        5
 14
-0.4949071086213606
 24
0.5
 14
-0.5
 24
0.4746861858866471
 14
0.4973642760661023
 24
0.4746861858866471
 14
0.5
 24
0.5
 14
-0.4949071086213606
 24
0.5
  0
LINE
  5
EE
100
AcDbEntity
  8
Keine
370
               5
  6
Continuous
 62
               7
100
AcDbLine
 10
-575.0
 20
85.0
 30
0.0
 11
-181.00000000000003
 21
85.0
 31
0.0
  0
LINE
  5
EF
100
AcDbEntity
  8
Keine
370
               5
  6
Continuous
 62
               7
100
AcDbLine
 10
-572.98809797850538
 20
75.0
 30
0.0
 11
-179.95878040263105
 21
75.0
 31
0.0
  0
WIPEOUT
  5
F0
100
AcDbEntity
  8
Keine
370
               5
  6
Continuous
 62
               7
 92
        0
100
AcDbWipeout
 90
        0
 10
-181.00000000000003
 20
74.999999999999986
 30
0.0
 11
115.04121959736896
 21
0.0
 31
0.0
 12
0.0
 22
115.04121959736896
 32
0.0
 13
1.0
 23
1.0
340
0
 70
               7
280
               1
281
              50
282
              50
283
               0
360
0
 71
               2
 91
        5
 14
-0.4909491606485647
 24
0.5
 14
-0.5
 24
0.4130746350308276
 14
0.4909491606485651
 24
0.2044537591048139
 14
0.5
 24
0.2913791240739863
 14
-0.4909491606485647
 24
0.5
  0
LINE
  5
F1
100
AcDbEntity
  8
Keine
370
               5
  6
Continuous
 62
               7
100
AcDbLine
 10
-181.00000000000003
 20
84.999999999999986
 30
0.0
 11
-67.0
 21
109.0
 31
0.0
  0
LINE
  5
F2
100
AcDbEntity
  8
Keine
370
               5
  6
Continuous
 62
               7
100
AcDbLine
 10
-179.95878040263105
 20
74.999999999999986
 30
0.0
 11
-65.958780402631064
 21
99.0
 31
0.0
  0
WIPEOUT
  5
F3
100
AcDbEntity
  8
Keine
370
               5
  6
Continuous
 62
               7
 92
        0
100
AcDbWipeout
 90
        0
 10
-67.0
 20
99.0
 30
0.0
 11
863.0
 21
0.0
 31
0.0
 12
0.0
 22
863.0
 32
0.0
 13
1.0
 23
1.0
340
0
 70
               7
280
               1
281
              50
282
              50
283
               0
360
0
 71
               2
 91
        5
 14
-0.4987934882996884
 24
0.5
 14
0.5
 24
0.5
 14
0.5
 24
0.4884125144843569
 14
-0.5
 24
0.4884125144843569
 14
-0.4987934882996884
 24
0.5
  0
LINE
  5
F4
100
AcDbEntity
  8
Keine
370
               5
  6
Continuous
 62
               7
100
AcDbLine
 10
-67.0
 20
109.0
 30
0.0
 11
795.99999999999966
 21
109.0
 31
0.0
  0
LINE
  5
F5
100
AcDbEntity
  8
Keine
370
               5
  6
Continuous
 62
               7
100
AcDbLine
 10
-65.958780402631064
 20
99.0
 30
0.0
 11
796.0
 21
99.0
 31
0.0
  0
WIPEOUT
  5
F6
100
AcDbEntity
  8
Keine
370
               5
  6
Continuous
 62
               7
 92
        0
100
AcDbWipeout
 90
        0
 10
-28.0
 20
714.0
 30
0.0
 11
135.0
 21
0.0
 31
0.0
 12
0.0
 22
135.0
 32
0.0
 13
1.0
 23
1.0
340
0
 70
               7
280
               1
281
              50
282
              50
283
               0
360
0
 71
               2
 91
        5
 14
-0.5
 24
0.5
 14
-0.5
 24
0.4259259259259259
 14
0.5
 24
0.4259259259259259
 14
0.5
 24
0.5
 14
-0.5
 24
0.5
  0
LINE
  5
F7
100
AcDbEntity
  8
Keine
370
               5
  6
Continuous
 62
               7
100
AcDbLine
 10
107.0
 20
714.0
 30
0.0
 11
107.0
 21
724.0
 31
0.0
  0
LINE
  5
F8
100
AcDbEntity
  8
Keine
370
               5
  6
Continuous
 62
               7
100
AcDbLine
 10
-28.0
 20
724.0
 30
0.0
 11
107.0
 21
724.0
 31
0.0
  0
LINE
  5
F9
100
AcDbEntity
  8
Keine
370
               5
  6
Continuous
 62
               7
100
AcDbLine
 10
-28.0
 20
714.0
 30
0.0
 11
107.0
 21
714.0
 31
0.0
  0
LINE
  5
FA
100
AcDbEntity
  8
Keine
370
               5
  6
Continuous
 62
               7
100
AcDbLine
 10
-28.0
 20
714.0
 30
0.0
 11
-28.0
 21
724.0
 31
0.0
  0
WIPEOUT
  5
FB
100
AcDbEntity
  8
Keine
370
               5
  6
Continuous
 62
               7
 92
        0
100
AcDbWipeout
 90
        0
 10
-28.0
 20
714.0
 30
0.0
 11
135.0
 21
0.0
 31
0.0
 12
0.0
 22
135.0
 32
0.0
 13
1.0
 23
1.0
340
0
 70
               7
280
               1
281
              50
282
              50
283
               0
360
0
 71
               2
 91
        5
 14
-0.5
 24
0.5
 14
-0.5
 24
0.4259259259259259
 14
0.5
 24
0.4259259259259259
 14
0.5
 24
0.5
 14
-0.5
 24
0.5
  0
LINE
  5
FC
100
AcDbEntity
  8
Keine
370
               5
  6
Continuous
 62
               7
100
AcDbLine
 10
107.0
 20
714.0
 30
0.0
 11
107.0
 21
724.0
 31
0.0
  0
LINE
  5
FD
100
AcDbEntity
  8
Keine
370
               5
  6
Continuous
 62
               7
100
AcDbLine
 10
-28.0
 20
724.0
 30
0.0
 11
107.0
 21
724.0
 31
0.0
  0
LINE
  5
FE
100
AcDbEntity
  8
Keine
370
               5
  6
Continuous
 62
               7
100
AcDbLine
 10
-28.0
 20
714.0
 30
0.0
 11
107.0
 21
714.0
 31
0.0
  0
LINE
  5
FF
100
AcDbEntity
  8
Keine
370
               5
  6
Continuous
 62
               7
100
AcDbLine
 10
-28.0
 20
714.0
 30
0.0
 11
-28.0
 21
724.0
 31
0.0
  0
WIPEOUT
  5
100
100
AcDbEntity
  8
Keine
370
               5
  6
Continuous
 62
               7
 92
        0
100
AcDbWipeout
 90
        0
 10
96.0
 20
709.0
 30
0.0
 11
224.0
 21
0.0
 31
0.0
 12
0.0
 22
224.0
 32
0.0
 13
1.0
 23
1.0
340
0
 70
               7
280
               1
281
              50
282
              50
283
               0
360
0
 71
               2
 91
        5
 14
-0.5
 24
0.5
 14
-0.5
 24
0.4553571428571429
 14
0.5
 24
0.4553571428571429
 14
0.5
 24
0.5
 14
-0.5
 24
0.5
  0
LINE
  5
101
100
AcDbEntity
  8
Keine
370
               5
  6
Continuous
 62
               7
100
AcDbLine
 10
320.0
 20
709.0
 30
0.0
 11
320.0
 21
719.0
 31
0.0
  0
LINE
  5
102
100
AcDbEntity
  8
Keine
370
               5
  6
Continuous
 62
               7
100
AcDbLine
 10
96.0
 20
719.0
 30
0.0
 11
320.0
 21
719.0
 31
0.0
  0
LINE
  5
103
100
AcDbEntity
  8
Keine
370
               5
  6
Continuous
 62
               7
100
AcDbLine
 10
96.0
 20
709.0
 30
0.0
 11
320.0
 21
709.0
 31
0.0
  0
LINE
  5
104
100
AcDbEntity
  8
Keine
370
               5
  6
Continuous
 62
               7
100
AcDbLine
 10
96.0
 20
709.0
 30
0.0
 11
96.0
 21
719.0
 31
0.0
  0
WIPEOUT
  5
105
100
AcDbEntity
  8
Keine
370
               5
  6
Continuous
 62
               7
 92
        0
100
AcDbWipeout
 90
        0
 10
-28.0
 20
714.0
 30
0.0
 11
135.0
 21
0.0
 31
0.0
 12
0.0
 22
135.0
 32
0.0
 13
1.0
 23
1.0
340
0
 70
               7
280
               1
281
              50
282
              50
283
               0
360
0
 71
               2
 91
        5
 14
-0.5
 24
0.5
 14
-0.5
 24
0.4259259259259259
 14
0.5
 24
0.4259259259259259
 14
0.5
 24
0.5
 14
-0.5
 24
0.5
  0
LINE
  5
106
100
AcDbEntity
  8
Keine
370
               5
  6
Continuous
 62
               7
100
AcDbLine
 10
107.0
 20
714.0
 30
0.0
 11
107.0
 21
724.0
 31
0.0
  0
LINE
  5
107
100
AcDbEntity
  8
Keine
370
               5
  6
Continuous
 62
               7
100
AcDbLine
 10
-28.0
 20
724.0
 30
0.0
 11
107.0
 21
724.0
 31
0.0
  0
LINE
  5
108
100
AcDbEntity
  8
Keine
370
               5
  6
Continuous
 62
               7
100
AcDbLine
 10
-28.0
 20
714.0
 30
0.0
 11
107.0
 21
714.0
 31
0.0
  0
LINE
  5
109
100
AcDbEntity
  8
Keine
370
               5
  6
Continuous
 62
               7
100
AcDbLine
 10
-28.0
 20
714.0
 30
0.0
 11
-28.0
 21
724.0
 31
0.0
  0
WIPEOUT
  5
10A
100
AcDbEntity
  8
Keine
370
               5
  6
Continuous
 62
               7
 92
        0
100
AcDbWipeout
 90
        0
 10
-28.0
 20
714.0
 30
0.0
 11
135.0
 21
0.0
 31
0.0
 12
0.0
 22
135.0
 32
0.0
 13
1.0
 23
1.0
340
0
 70
               7
280
               1
281
              50
282
              50
283
               0
360
0
 71
               2
 91
        5
 14
-0.5
 24
0.5
 14
-0.5
 24
0.4259259259259259
 14
0.5
 24
0.4259259259259259
 14
0.5
 24
0.5
 14
-0.5
 24
0.5
  0
LINE
  5
10B
100
AcDbEntity
  8
Keine
370
               5
  6
Continuous
 62
               7
100
AcDbLine
 10
107.0
 20
714.0
 30
0.0
 11
107.0
 21
724.0
 31
0.0
  0
LINE
  5
10C
100
AcDbEntity
  8
Keine
370
               5
  6
Continuous
 62
               7
100
AcDbLine
 10
-28.0
 20
724.0
 30
0.0
 11
107.0
 21
724.0
 31
0.0
  0
LINE
  5
10D
100
AcDbEntity
  8
Keine
370
               5
  6
Continuous
 62
               7
100
AcDbLine
 10
-28.0
 20
714.0
 30
0.0
 11
107.0
 21
714.0
 31
0.0
  0
LINE
  5
10E
100
AcDbEntity
  8
Keine
370
               5
  6
Continuous
 62
               7
100
AcDbLine
 10
-28.0
 20
714.0
 30
0.0
 11
-28.0
 21
724.0
 31
0.0
  0
WIPEOUT
  5
10F
100
AcDbEntity
  8
Keine
370
               5
  6
Continuous
 62
               7
 92
        0
100
AcDbWipeout
 90
        0
 10
96.0
 20
709.0
 30
0.0
 11
224.0
 21
0.0
 31
0.0
 12
0.0
 22
224.0
 32
0.0
 13
1.0
 23
1.0
340
0
 70
               7
280
               1
281
              50
282
              50
283
               0
360
0
 71
               2
 91
        5
 14
-0.5
 24
0.5
 14
-0.5
 24
0.4553571428571429
 14
0.5
 24
0.4553571428571429
 14
0.5
 24
0.5
 14
-0.5
 24
0.5
  0
LINE
  5
110
100
AcDbEntity
  8
Keine
370
               5
  6
Continuous
 62
               7
100
AcDbLine
 10
320.0
 20
709.0
 30
0.0
 11
320.0
 21
719.0
 31
0.0
  0
LINE
  5
111
100
AcDbEntity
  8
Keine
370
               5
  6
Continuous
 62
               7
100
AcDbLine
 10
96.0
 20
719.0
 30
0.0
 11
320.0
 21
719.0
 31
0.0
  0
LINE
  5
112
100
AcDbEntity
  8
Keine
370
               5
  6
Continuous
 62
               7
100
AcDbLine
 10
96.0
 20
709.0
 30
0.0
 11
320.0
 21
709.0
 31
0.0
  0
LINE
  5
113
100
AcDbEntity
  8
Keine
370
               5
  6
Continuous
 62
               7
100
AcDbLine
 10
96.0
 20
709.0
 30
0.0
 11
96.0
 21
719.0
 31
0.0
  0
WIPEOUT
  5
114
100
AcDbEntity
  8
Keine
370
               5
  6
Continuous
 62
               7
 92
        0
100
AcDbWipeout
 90
        0
 10
-28.0
 20
714.0
 30
0.0
 11
135.0
 21
0.0
 31
0.0
 12
0.0
 22
135.0
 32
0.0
 13
1.0
 23
1.0
340
0
 70
               7
280
               1
281
              50
282
              50
283
               0
360
0
 71
               2
 91
        5
 14
-0.5
 24
0.5
 14
-0.5
 24
0.4259259259259259
 14
0.5
 24
0.4259259259259259
 14
0.5
 24
0.5
 14
-0.5
 24
0.5
  0
LINE
  5
115
100
AcDbEntity
  8
Keine
370
               5
  6
Continuous
 62
               7
100
AcDbLine
 10
107.0
 20
714.0
 30
0.0
 11
107.0
 21
724.0
 31
0.0
  0
LINE
  5
116
100
AcDbEntity
  8
Keine
370
               5
  6
Continuous
 62
               7
100
AcDbLine
 10
-28.0
 20
724.0
 30
0.0
 11
107.0
 21
724.0
 31
0.0
  0
LINE
  5
117
100
AcDbEntity
  8
Keine
370
               5
  6
Continuous
 62
               7
100
AcDbLine
 10
-28.0
 20
714.0
 30
0.0
 11
107.0
 21
714.0
 31
0.0
  0
LINE
  5
118
100
AcDbEntity
  8
Keine
370
               5
  6
Continuous
 62
               7
100
AcDbLine
 10
-28.0
 20
714.0
 30
0.0
 11
-28.0
 21
724.0
 31
0.0
  0
WIPEOUT
  5
119
100
AcDbEntity
  8
Keine
370
               5
  6
Continuous
 62
               7
 92
        0
100
AcDbWipeout
 90
        0
 10
96.0
 20
709.0
 30
0.0
 11
224.0
 21
0.0
 31
0.0
 12
0.0
 22
224.0
 32
0.0
 13
1.0
 23
1.0
340
0
 70
               7
280
               1
281
              50
282
              50
283
               0
360
0
 71
               2
 91
        5
 14
-0.5
 24
0.5
 14
-0.5
 24
0.4553571428571429
 14
0.5
 24
0.4553571428571429
 14
0.5
 24
0.5
 14
-0.5
 24
0.5
  0
LINE
  5
11A
100
AcDbEntity
  8
Keine
370
               5
  6
Continuous
 62
               7
100
AcDbLine
 10
320.0
 20
709.0
 30
0.0
 11
320.0
 21
719.0
 31
0.0
  0
LINE
  5
11B
100
AcDbEntity
  8
Keine
370
               5
  6
Continuous
 62
               7
100
AcDbLine
 10
96.0
 20
719.0
 30
0.0
 11
320.0
 21
719.0
 31
0.0
  0
LINE
  5
11C
100
AcDbEntity
  8
Keine
370
               5
  6
Continuous
 62
               7
100
AcDbLine
 10
96.0
 20
709.0
 30
0.0
 11
320.0
 21
709.0
 31
0.0
  0
LINE
  5
11D
100
AcDbEntity
  8
Keine
370
               5
  6
Continuous
 62
               7
100
AcDbLine
 10
96.0
 20
709.0
 30
0.0
 11
96.0
 21
719.0
 31
0.0
  0
WIPEOUT
  5
11E
100
AcDbEntity
  8
Keine
370
               5
  6
Continuous
 62
               7
 92
        0
100
AcDbWipeout
 90
        0
 10
1123.0
 20
174.0
 30
0.0
 11
230.0
 21
0.0
 31
0.0
 12
0.0
 22
230.0
 32
0.0
 13
1.0
 23
1.0
340
0
 70
               7
280
               1
281
              50
282
              50
283
               0
360
0
 71
               2
 91
       10
 14
-0.4565217391304348
 24
0.5
 14
-0.4565217391304348
 24
-0.5
 14
-0.5
 24
-0.5
 14
-0.5
 24
-0.4434782608695652
 14
-0.5
 24
-0.1391304347826087
 14
-0.5
 24
-0.0826086956521739
 14
-0.5
 24
0.1739130434782609
 14
-0.5
 24
0.2304347826086957
 14
-0.5
 24
0.5
 14
-0.4565217391304348
 24
0.5
  0
LINE
  5
11F
100
AcDbEntity
  8
Keine
370
               5
  6
Continuous
 62
               7
100
AcDbLine
 10
1123.0
 20
174.0
 30
0.0
 11
1133.0
 21
174.0
 31
0.0
  0
LINE
  5
120
100
AcDbEntity
  8
Keine
370
               5
  6
Continuous
 62
               7
100
AcDbLine
 10
1133.0
 20
404.0
 30
0.0
 11
1133.0
 21
174.0
 31
0.0
  0
LINE
  5
121
100
AcDbEntity
  8
Keine
370
               5
  6
Continuous
 62
               7
100
AcDbLine
 10
1123.0
 20
236.0
 30
0.0
 11
1123.0
 21
174.0
 31
0.0
  0
LINE
  5
122
100
AcDbEntity
  8
Keine
370
               5
  6
Continuous
 62
               7
100
AcDbLine
 10
1123.0
 20
308.0
 30
0.0
 11
1123.0
 21
249.0
 31
0.0
  0
LINE
  5
123
100
AcDbEntity
  8
Keine
370
               5
  6
Continuous
 62
               7
100
AcDbLine
 10
1123.0
 20
391.0
 30
0.0
 11
1123.0
 21
321.0
 31
0.0
  0
LINE
  5
124
100
AcDbEntity
  8
Keine
370
               5
  6
Continuous
 62
               7
100
AcDbLine
 10
1123.0
 20
404.0
 30
0.0
 11
1133.0
 21
404.0
 31
0.0
  0
WIPEOUT
  5
125
100
AcDbEntity
  8
Keine
370
               5
  6
Continuous
 62
               7
 92
        0
100
AcDbWipeout
 90
        0
 10
-1159.5
 20
11.5
 30
0.0
 11
309.5
 21
0.0
 31
0.0
 12
0.0
 22
309.5
 32
0.0
 13
1.0
 23
1.0
340
0
 70
               7
280
               1
281
              50
282
              50
283
               0
360
0
 71
               2
 91
       12
 14
-0.4676898222940226
 24
-0.2673667205169629
 14
-0.4676898222940226
 24
-0.4579967689822294
 14
-0.4676898222940226
 24
-0.5
 14
-0.5
 24
-0.4579967689822294
 14
-0.5
 24
0.5
 14
-0.4676898222940226
 24
0.5
 14
-0.4676898222940226
 24
0.4208400646203554
 14
-0.4676898222940226
 24
0.388529886914378
 14
-0.4676898222940226
 24
0.1870737243492354
 14
-0.4676898222940226
 24
0.1353743187345772
 14
-0.4676898222940226
 24
-0.2253634894991923
 14
-0.4676898222940226
 24
-0.2673667205169629
  0
LINE
  5
126
100
AcDbEntity
  8
Keine
370
               5
  6
Continuous
 62
               7
100
AcDbLine
 10
-1159.5
 20
11.5
 30
0.0
 11
-1149.5
 21
11.5
 31
0.0
  0
LINE
  5
127
100
AcDbEntity
  8
Keine
370
               5
  6
Continuous
 62
               7
100
AcDbLine
 10
-1149.5
 20
36.0
 30
0.0
 11
-1149.5
 21
11.5
 31
0.0
  0
LINE
  5
128
100
AcDbEntity
  8
Keine
370
               5
  6
Continuous
 62
               7
100
AcDbLine
 10
-1159.5
 20
308.0
 30
0.0
 11
-1159.5
 21
11.5
 31
0.0
  0
LINE
  5
129
100
AcDbEntity
  8
Keine
370
               5
  6
Continuous
 62
               7
100
AcDbLine
 10
-1149.5
 20
108.35068231391165
 30
0.0
 11
-1149.5
 21
46.0
 31
0.0
  0
LINE
  5
12A
100
AcDbEntity
  8
Keine
370
               5
  6
Continuous
 62
               7
100
AcDbLine
 10
-1149.5
 20
236.0
 30
0.0
 11
-1149.5
 21
124.35164835164835
 31
0.0
  0
LINE
  5
12B
100
AcDbEntity
  8
Keine
370
               5
  6
Continuous
 62
               7
100
AcDbLine
 10
-1149.5
 20
308.0
 30
0.0
 11
-1149.5
 21
249.0
 31
0.0
  0
WIPEOUT
  5
12C
100
AcDbEntity
  8
Keine
370
               5
  6
Continuous
 62
               7
 92
        0
100
AcDbWipeout
 90
        0
 10
-1149.5
 20
108.00048298970673
 30
0.0
 11
32.043952063311508
 21
0.0
 31
0.0
 12
0.0
 22
32.043952063311508
 32
0.0
 13
1.0
 23
1.0
340
0
 70
               7
280
               1
281
              50
282
              50
283
               0
360
0
 71
               2
 91
        5
 14
0.5
 24
0.0007159544810165
 14
-0.5
 24
-0.0102730565079956
 14
-0.5
 24
0.4890712817347558
 14
0.4945133621371607
 24
0.5
 14
0.5
 24
0.0007159544810165
  0
LINE
  5
12D
100
AcDbEntity
  8
Keine
370
               5
  6
Continuous
 62
               7
100
AcDbLine
 10
-1117.6318614973541
 20
108.00048298970673
 30
0.0
 11
-1149.5
 21
108.35068231391163
 31
0.0
  0
LINE
  5
12E
100
AcDbEntity
  8
Keine
370
               5
  6
Continuous
 62
               7
100
AcDbLine
 10
-1117.4560479366885
 20
123.99951701029327
 30
0.0
 11
-1149.5
 21
124.35164835164835
 31
0.0
  0
WIPEOUT
  5
12F
100
AcDbEntity
  8
Keine
370
               5
  6
Continuous
 62
               7
 92
        0
100
AcDbWipeout
 90
        0
 10
-1149.5
 20
36.0
 30
0.0
 11
33.5
 21
0.0
 31
0.0
 12
0.0
 22
33.5
 32
0.0
 13
1.0
 23
1.0
340
0
 70
               7
280
               1
281
              50
282
              50
283
               0
360
0
 71
               2
 91
        5
 14
0.5
 24
0.2014925373134329
 14
-0.5
 24
0.2014925373134329
 14
-0.5
 24
0.5
 14
0.5
 24
0.5
 14
0.5
 24
0.2014925373134329
  0
LINE
  5
130
100
AcDbEntity
  8
Keine
370
               5
  6
Continuous
 62
               7
100
AcDbLine
 10
-1116.0
 20
36.0
 30
0.0
 11
-1149.5
 21
36.0
 31
0.0
  0
LINE
  5
131
100
AcDbEntity
  8
Keine
370
               5
  6
Continuous
 62
               7
100
AcDbLine
 10
-1116.0
 20
46.0
 30
0.0
 11
-1149.5
 21
46.0
 31
0.0
  0
LINE
  5
132
100
AcDbEntity
  8
Keine
370
               5
  6
Continuous
 62
               7
100
AcDbLine
 10
-1116.0
 20
46.0
 30
0.0
 11
-1116.0
 21
36.0
 31
0.0
  0
WIPEOUT
  5
133
100
AcDbEntity
  8
Keine
370
               5
  6
Continuous
 62
               7
 92
        0
100
AcDbWipeout
 90
        0
 10
-1149.5
 20
236.0
 30
0.0
 11
32.0
 21
0.0
 31
0.0
 12
0.0
 22
32.0
 32
0.0
 13
1.0
 23
1.0
340
0
 70
               7
280
               1
281
              50
282
              50
283
               0
360
0
 71
               2
 91
        5
 14
0.5
 24
0.09375
 14
-0.5
 24
0.09375
 14
-0.5
 24
0.5
 14
0.5
 24
0.5
 14
0.5
 24
0.09375
  0
LINE
  5
134
100
AcDbEntity
  8
Keine
370
               5
  6
Continuous
 62
               7
100
AcDbLine
 10
-1117.5
 20
236.0
 30
0.0
 11
-1149.5
 21
236.0
 31
0.0
  0
LINE
  5
135
100
AcDbEntity
  8
Keine
370
               5
  6
Continuous
 62
               7
100
AcDbLine
 10
-1117.5
 20
249.0
 30
0.0
 11
-1149.5
 21
249.0
 31
0.0
  0
WIPEOUT
  5
136
100
AcDbEntity
  8
Keine
370
               5
  6
Continuous
 62
               7
 92
        0
100
AcDbWipeout
 90
        0
 10
-1149.5
 20
308.0
 30
0.0
 11
35.470982721152723
 21
0.0
 31
0.0
 12
0.0
 22
35.470982721152723
 32
0.0
 13
1.0
 23
1.0
340
0
 70
               7
280
               1
281
              50
282
              50
283
               0
360
0
 71
               2
 91
        5
 14
0.5
 24
0.1335032468032639
 14
-0.5
 24
0.1335032468032639
 14
-0.5
 24
0.5
 14
0.5
 24
0.5
 14
0.5
 24
0.1335032468032639
  0
LINE
  5
137
100
AcDbEntity
  8
Keine
370
               5
  6
Continuous
 62
               7
100
AcDbLine
 10
-1114.0290172788473
 20
308.0
 30
0.0
 11
-1149.5000000000002
 21
308.0
 31
0.0
  0
LINE
  5
138
100
AcDbEntity
  8
Keine
370
               5
  6
Continuous
 62
               7
100
AcDbLine
 10
-1114.0290172788473
 20
321.0
 30
0.0
 11
-1149.5
 21
321.0
 31
0.0
  0
LINE
  5
139
100
AcDbEntity
  8
Keine
370
               5
  6
Continuous
 62
               7
100
AcDbLine
 10
-1114.0290172788473
 20
321.0
 30
0.0
 11
-1114.0290172788473
 21
308.0
 31
0.0
  0
WIPEOUT
  5
13A
100
AcDbEntity
  8
Keine
370
               5
  6
Continuous
 62
               7
 92
        0
100
AcDbWipeout
 90
        0
 10
961.5
 20
96.5
 30
0.0
 11
139.5
 21
0.0
 31
0.0
 12
0.0
 22
139.5
 32
0.0
 13
1.0
 23
1.0
340
0
 70
               7
280
               1
281
              50
282
              50
283
               0
360
0
 71
               2
 91
        7
 14
-0.5
 24
0.5
 14
-0.4283154121863799
 24
0.5
 14
-0.4283154121863799
 24
-0.5
 14
-0.5
 24
-0.5
 14
-0.5
 24
-0.1272401433691757
 14
-0.5
 24
-0.0340501792114696
 14
-0.5
 24
0.5
  0
LINE
  5
13B
100
AcDbEntity
  8
Keine
370
               5
  6
Continuous
 62
               7
100
AcDbLine
 10
961.5
 20
184.0
 30
0.0
 11
961.5
 21
236.0
 31
0.0
  0
LINE
  5
13C
100
AcDbEntity
  8
Keine
370
               5
  6
Continuous
 62
               7
100
AcDbLine
 10
971.5
 20
96.5
 30
0.0
 11
971.5
 21
236.0
 31
0.0
  0
LINE
  5
13D
100
AcDbEntity
  8
Keine
370
               5
  6
Continuous
 62
               7
100
AcDbLine
 10
961.5
 20
96.5
 30
0.0
 11
961.5
 21
171.0
 31
0.0
  0
LINE
  5
13E
100
AcDbEntity
  8
Keine
370
               5
  6
Continuous
 62
               7
100
AcDbLine
 10
971.5
 20
96.5
 30
0.0
 11
961.5
 21
96.5
 31
0.0
  0
WIPEOUT
  5
13F
100
AcDbEntity
  8
Keine
370
               5
  6
Continuous
 62
               7
 92
        0
100
AcDbWipeout
 90
        0
 10
796.0
 20
41.5
 30
0.0
 11
129.5
 21
0.0
 31
0.0
 12
0.0
 22
129.5
 32
0.0
 13
1.0
 23
1.0
340
0
 70
               7
280
               1
281
              50
282
              50
283
               0
360
0
 71
               2
 91
        7
 14
-0.5
 24
-0.5
 14
-0.5
 24
-0.0212355212355212
 14
-0.5
 24
0.055984555984556
 14
-0.5
 24
0.5
 14
-0.4227799227799228
 24
0.5
 14
-0.4227799227799228
 24
-0.5
 14
-0.5
 24
-0.5
  0
LINE
  5
140
100
AcDbEntity
  8
Keine
370
               5
  6
Continuous
 62
               7
100
AcDbLine
 10
796.0
 20
41.5
 30
0.0
 11
806.0
 21
41.5
 31
0.0
  0
LINE
  5
141
100
AcDbEntity
  8
Keine
370
               5
  6
Continuous
 62
               7
100
AcDbLine
 10
806.0
 20
171.0
 30
0.0
 11
806.0
 21
41.5
 31
0.0
  0
LINE
  5
142
100
AcDbEntity
  8
Keine
370
               5
  6
Continuous
 62
               7
100
AcDbLine
 10
796.0
 20
99.0
 30
0.0
 11
796.0
 21
41.5
 31
0.0
  0
LINE
  5
143
100
AcDbEntity
  8
Keine
370
               5
  6
Continuous
 62
               7
100
AcDbLine
 10
796.0
 20
171.0
 30
0.0
 11
796.0
 21
109.0
 31
0.0
  0
WIPEOUT
  5
144
100
AcDbEntity
  8
Keine
370
               5
  6
Continuous
 62
               7
 92
        0
100
AcDbWipeout
 90
        0
 10
-1096.5
 20
124.0
 30
0.0
 11
112.0
 21
0.0
 31
0.0
 12
0.0
 22
112.0
 32
0.0
 13
1.0
 23
1.0
340
0
 70
               7
280
               1
281
              50
282
              50
283
               0
360
0
 71
               2
 91
        5
 14
-0.5
 24
-0.5
 14
-0.4375
 24
-0.5
 14
-0.4375
 24
0.5
 14
-0.5
 24
0.5
 14
-0.5
 24
-0.5
  0
LINE
  5
145
100
AcDbEntity
  8
Keine
370
               5
  6
Continuous
 62
               7
100
AcDbLine
 10
-1089.5
 20
236.0
 30
0.0
 11
-1089.5
 21
124.0
 31
0.0
  0
LINE
  5
146
100
AcDbEntity
  8
Keine
370
               5
  6
Continuous
 62
               7
100
AcDbLine
 10
-1096.5
 20
236.0
 30
0.0
 11
-1096.5
 21
124.0
 31
0.0
  0
WIPEOUT
  5
147
100
AcDbEntity
  8
Keine
370
               5
  6
Continuous
 62
               7
 92
        0
100
AcDbWipeout
 90
        0
 10
-1040.5
 20
124.0
 30
0.0
 11
112.0
 21
0.0
 31
0.0
 12
0.0
 22
112.0
 32
0.0
 13
1.0
 23
1.0
340
0
 70
               7
280
               1
281
              50
282
              50
283
               0
360
0
 71
               2
 91
        5
 14
-0.5
 24
-0.5
 14
-0.4375
 24
-0.5
 14
-0.4375
 24
0.5
 14
-0.5
 24
0.5
 14
-0.5
 24
-0.5
  0
LINE
  5
148
100
AcDbEntity
  8
Keine
370
               5
  6
Continuous
 62
               7
100
AcDbLine
 10
-1033.5
 20
236.0
 30
0.0
 11
-1033.5
 21
124.0
 31
0.0
  0
LINE
  5
149
100
AcDbEntity
  8
Keine
370
               5
  6
Continuous
 62
               7
100
AcDbLine
 10
-1040.5
 20
236.0
 30
0.0
 11
-1040.5
 21
124.0
 31
0.0
  0
WIPEOUT
  5
14A
100
AcDbEntity
  8
Keine
370
               5
  6
Continuous
 62
               7
 92
        0
100
AcDbWipeout
 90
        0
 10
-939.0
 20
124.0
 30
0.0
 11
112.0
 21
0.0
 31
0.0
 12
0.0
 22
112.0
 32
0.0
 13
1.0
 23
1.0
340
0
 70
               7
280
               1
281
              50
282
              50
283
               0
360
0
 71
               2
 91
        5
 14
-0.5
 24
-0.5
 14
-0.4375
 24
-0.5
 14
-0.4375
 24
0.5
 14
-0.5
 24
0.5
 14
-0.5
 24
-0.5
  0
LINE
  5
14B
100
AcDbEntity
  8
Keine
370
               5
  6
Continuous
 62
               7
100
AcDbLine
 10
-932.0
 20
236.0
 30
0.0
 11
-932.0
 21
124.0
 31
0.0
  0
LINE
  5
14C
100
AcDbEntity
  8
Keine
370
               5
  6
Continuous
 62
               7
100
AcDbLine
 10
-939.0
 20
236.0
 30
0.0
 11
-939.0
 21
124.0
 31
0.0
  0
WIPEOUT
  5
14D
100
AcDbEntity
  8
Keine
370
               5
  6
Continuous
 62
               7
 92
        0
100
AcDbWipeout
 90
        0
 10
-882.5
 20
124.0
 30
0.0
 11
112.0
 21
0.0
 31
0.0
 12
0.0
 22
112.0
 32
0.0
 13
1.0
 23
1.0
340
0
 70
               7
280
               1
281
              50
282
              50
283
               0
360
0
 71
               2
 91
        5
 14
-0.5
 24
-0.5
 14
-0.4375
 24
-0.5
 14
-0.4375
 24
0.5
 14
-0.5
 24
0.5
 14
-0.5
 24
-0.5
  0
LINE
  5
14E
100
AcDbEntity
  8
Keine
370
               5
  6
Continuous
 62
               7
100
AcDbLine
 10
-875.5
 20
236.0
 30
0.0
 11
-875.5
 21
124.0
 31
0.0
  0
LINE
  5
14F
100
AcDbEntity
  8
Keine
370
               5
  6
Continuous
 62
               7
100
AcDbLine
 10
-882.5
 20
236.0
 30
0.0
 11
-882.5
 21
124.0
 31
0.0
  0
WIPEOUT
  5
150
100
AcDbEntity
  8
Keine
370
               5
  6
Continuous
 62
               7
 92
        0
100
AcDbWipeout
 90
        0
 10
-780.0
 20
124.0
 30
0.0
 11
112.0
 21
0.0
 31
0.0
 12
0.0
 22
112.0
 32
0.0
 13
1.0
 23
1.0
340
0
 70
               7
280
               1
281
              50
282
              50
283
               0
360
0
 71
               2
 91
        5
 14
-0.5
 24
-0.5
 14
-0.4375
 24
-0.5
 14
-0.4375
 24
0.5
 14
-0.5
 24
0.5
 14
-0.5
 24
-0.5
  0
LINE
  5
151
100
AcDbEntity
  8
Keine
370
               5
  6
Continuous
 62
               7
100
AcDbLine
 10
-773.0
 20
236.0
 30
0.0
 11
-773.0
 21
124.0
 31
0.0
  0
LINE
  5
152
100
AcDbEntity
  8
Keine
370
               5
  6
Continuous
 62
               7
100
AcDbLine
 10
-780.0
 20
236.0
 30
0.0
 11
-780.0
 21
124.0
 31
0.0
  0
WIPEOUT
  5
153
100
AcDbEntity
  8
Keine
370
               5
  6
Continuous
 62
               7
 92
        0
100
AcDbWipeout
 90
        0
 10
-722.5
 20
124.0
 30
0.0
 11
112.0
 21
0.0
 31
0.0
 12
0.0
 22
112.0
 32
0.0
 13
1.0
 23
1.0
340
0
 70
               7
280
               1
281
              50
282
              50
283
               0
360
0
 71
               2
 91
        5
 14
-0.5
 24
-0.5
 14
-0.4375
 24
-0.5
 14
-0.4375
 24
0.5
 14
-0.5
 24
0.5
 14
-0.5
 24
-0.5
  0
LINE
  5
154
100
AcDbEntity
  8
Keine
370
               5
  6
Continuous
 62
               7
100
AcDbLine
 10
-715.5
 20
236.0
 30
0.0
 11
-715.5
 21
124.0
 31
0.0
  0
LINE
  5
155
100
AcDbEntity
  8
Keine
370
               5
  6
Continuous
 62
               7
100
AcDbLine
 10
-722.5
 20
236.0
 30
0.0
 11
-722.5
 21
124.0
 31
0.0
  0
INSERT
  5
156
100
AcDbEntity
  8
Keine
 62
               7
100
AcDbBlockReference
  2
Tür 7 oben
 10
-510.0
 20
116.5
 30
0.0
  0
LINE
  5
157
100
AcDbEntity
  8
Keine
370
               5
  6
Continuous
 62
             255
100
AcDbLine
 10
-1116.0
 20
46.0
 30
0.0
 11
-1116.0
 21
36.0
 31
0.0
  0
LINE
  5
158
100
AcDbEntity
  8
Keine
370
               5
  6
Continuous
 62
               7
100
AcDbLine
 10
-27.0
 20
714.0
 30
0.0
 11
-27.0
 21
635.0
 31
0.0
  0
LINE
  5
159
100
AcDbEntity
  8
Keine
370
               5
  6
Continuous
 62
               7
100
AcDbLine
 10
-20.0
 20
711.0
 30
0.0
 11
-20.0
 21
635.0
 31
0.0
  0
LINE
  5
15A
100
AcDbEntity
  8
Keine
370
               5
  6
Continuous
 62
               7
100
AcDbLine
 10
-20.0
 20
678.0
 30
0.0
 11
33.0
 21
678.0
 31
0.0
  0
LINE
  5
15B
100
AcDbEntity
  8
Keine
370
               5
  6
Continuous
 62
               7
100
AcDbLine
 10
33.0
 20
678.0
 30
0.0
 11
33.0
 21
636.0
 31
0.0
  0
LINE
  5
15C
100
AcDbEntity
  8
Keine
370
               5
  6
Continuous
 62
               7
100
AcDbLine
 10
33.0
 20
664.0
 30
0.0
 11
73.0
 21
664.0
 31
0.0
  0
LINE
  5
15D
100
AcDbEntity
  8
Keine
370
               5
  6
Continuous
 62
               7
100
AcDbLine
 10
73.0
 20
664.0
 30
0.0
 11
73.0
 21
635.0
 31
0.0
  0
LINE
  5
15E
100
AcDbEntity
  8
Keine
370
               5
  6
Continuous
 62
               7
100
AcDbLine
 10
97.0
 20
709.0
 30
0.0
 11
97.0
 21
635.0
 31
0.0
  0
LINE
  5
15F
100
AcDbEntity
  8
Keine
370
               5
  6
Continuous
 62
               7
100
AcDbLine
 10
106.0
 20
709.0
 30
0.0
 11
106.0
 21
635.0
 31
0.0
  0
LINE
  5
160
100
AcDbEntity
  8
Keine
370
               5
  6
Continuous
 62
               7
100
AcDbLine
 10
151.0
 20
710.0
 30
0.0
 11
151.0
 21
635.0
 31
0.0
  0
LINE
  5
161
100
AcDbEntity
  8
Keine
370
               5
  6
Continuous
 62
               7
100
AcDbLine
 10
156.0
 20
709.0
 30
0.0
 11
156.0
 21
635.0
 31
0.0
  0
LINE
  5
162
100
AcDbEntity
  8
Keine
370
               5
  6
Continuous
 62
               7
100
AcDbLine
 10
197.0
 20
709.0
 30
0.0
 11
197.0
 21
635.0
 31
0.0
  0
LINE
  5
163
100
AcDbEntity
  8
Keine
370
               5
  6
Continuous
 62
               7
100
AcDbLine
 10
208.0
 20
709.0
 30
0.0
 11
208.0
 21
635.0
 31
0.0
  0
LINE
  5
164
100
AcDbEntity
  8
Keine
370
               5
  6
Continuous
 62
               7
100
AcDbLine
 10
218.0
 20
710.0
 30
0.0
 11
218.0
 21
636.0
 31
0.0
  0
LINE
  5
165
100
AcDbEntity
  8
Keine
370
               5
  6
Continuous
 62
               7
100
AcDbLine
 10
97.0
 20
665.0
 30
0.0
 11
208.0
 21
665.0
 31
0.0
  0
LINE
  5
166
100
AcDbEntity
  8
Keine
370
               5
  6
Continuous
 62
               7
100
AcDbLine
 10
317.0
 20
707.0
 30
0.0
 11
317.0
 21
635.0
 31
0.0
  0
LINE
  5
167
100
AcDbEntity
  8
Keine
370
               5
  6
Continuous
 62
               7
100
AcDbLine
 10
309.0
 20
700.0
 30
0.0
 11
309.0
 21
636.0
 31
0.0
  0
LINE
  5
168
100
AcDbEntity
  8
Keine
370
               5
  6
Continuous
 62
               7
100
AcDbLine
 10
302.0
 20
700.0
 30
0.0
 11
302.0
 21
635.0
 31
0.0
  0
LINE
  5
169
100
AcDbEntity
  8
Keine
370
               5
  6
Continuous
 62
               7
100
AcDbLine
 10
290.0
 20
710.0
 30
0.0
 11
290.0
 21
635.0
 31
0.0
  0
LINE
  5
16A
100
AcDbEntity
  8
Keine
370
               5
  6
Continuous
 62
               7
100
AcDbLine
 10
281.0
 20
710.0
 30
0.0
 11
281.0
 21
635.0
 31
0.0
  0
LINE
  5
16B
100
AcDbEntity
  8
Keine
370
               5
  6
Continuous
 62
               7
100
AcDbLine
 10
822.0
 20
622.0
 30
0.0
 11
822.0
 21
558.0
 31
0.0
  0
LINE
  5
16C
100
AcDbEntity
  8
Keine
370
               5
  6
Continuous
 62
               7
100
AcDbLine
 10
813.0
 20
622.0
 30
0.0
 11
813.0
 21
558.0
 31
0.0
  0
LINE
  5
16D
100
AcDbEntity
  8
Keine
370
               5
  6
Continuous
 62
               7
100
AcDbLine
 10
800.0
 20
622.0
 30
0.0
 11
800.0
 21
558.0
 31
0.0
  0
LINE
  5
16E
100
AcDbEntity
  8
Keine
370
               5
  6
Continuous
 62
               7
100
AcDbLine
 10
793.0
 20
622.0
 30
0.0
 11
793.0
 21
558.0
 31
0.0
  0
LINE
  5
16F
100
AcDbEntity
  8
Keine
370
               5
  6
Continuous
 62
               7
100
AcDbLine
 10
-184.5
 20
621.5
 30
0.0
 11
-184.5
 21
558.5
 31
0.0
  0
LINE
  5
170
100
AcDbEntity
  8
Keine
370
               5
  6
Continuous
 62
               7
100
AcDbLine
 10
-190.5
 20
621.5
 30
0.0
 11
-190.5
 21
558.0
 31
0.0
  0
LINE
  5
171
100
AcDbEntity
  8
Keine
370
               5
  6
Continuous
 62
               7
100
AcDbLine
 10
-136.0
 20
621.5
 30
0.0
 11
-135.0
 21
558.5
 31
0.0
  0
LINE
  5
172
100
AcDbEntity
  8
Keine
370
               5
  6
Continuous
 62
               7
100
AcDbLine
 10
-93.5
 20
621.5
 30
0.0
 11
-93.5
 21
558.0
 31
0.0
  0
LINE
  5
173
100
AcDbEntity
  8
Keine
370
               5
  6
Continuous
 62
               7
100
AcDbLine
 10
-71.5
 20
622.0
 30
0.0
 11
-71.5
 21
558.0
 31
0.0
  0
LINE
  5
174
100
AcDbEntity
  8
Keine
370
               5
  6
Continuous
 62
               7
100
AcDbLine
 10
-22.5
 20
622.0
 30
0.0
 11
-22.5
 21
558.5
 31
0.0
  0
LINE
  5
175
100
AcDbEntity
  8
Keine
370
               5
  6
Continuous
 62
               7
100
AcDbLine
 10
97.5
 20
591.0
 30
0.0
 11
97.5
 21
558.0
 31
0.0
  0
LINE
  5
176
100
AcDbEntity
  8
Keine
370
               5
  6
Continuous
 62
               7
100
AcDbLine
 10
97.5
 20
591.0
 30
0.0
 11
196.5
 21
591.0
 31
0.0
  0
LINE
  5
177
100
AcDbEntity
  8
Keine
370
               5
  6
Continuous
 62
               7
100
AcDbLine
 10
163.5
 20
591.0
 30
0.0
 11
163.5
 21
558.0
 31
0.0
  0
LINE
  5
178
100
AcDbEntity
  8
Keine
370
               5
  6
Continuous
 62
               7
100
AcDbLine
 10
131.5
 20
591.0
 30
0.0
 11
131.5
 21
558.0
 31
0.0
  0
LINE
  5
179
100
AcDbEntity
  8
Keine
370
               5
  6
Continuous
 62
               7
100
AcDbLine
 10
97.5
 20
579.0
 30
0.0
 11
196.68181818181819
 21
579.0
 31
0.0
  0
LINE
  5
17A
100
AcDbEntity
  8
Keine
370
               5
  6
Continuous
 62
               7
100
AcDbLine
 10
97.5
 20
570.5
 30
0.0
 11
196.81818181818181
 21
570.0
 31
0.0
  0
LINE
  5
17B
100
AcDbEntity
  8
Keine
370
               5
  6
Continuous
 62
               7
100
AcDbLine
 10
196.5
 20
591.0
 30
0.0
 11
196.5
 21
558.0
 31
0.0
  0
LINE
  5
17C
100
AcDbEntity
  8
Keine
370
               5
  6
Continuous
 62
               7
100
AcDbLine
 10
200.0
 20
622.0
 30
0.0
 11
200.0
 21
558.0
 31
0.0
  0
LINE
  5
17D
100
AcDbEntity
  8
Keine
370
               5
  6
Continuous
 62
               7
100
AcDbLine
 10
196.5
 20
621.5
 30
0.0
 11
196.5
 21
591.0
 31
0.0
  0
LINE
  5
17E
100
AcDbEntity
  8
Keine
370
               5
  6
Continuous
 62
               7
100
AcDbLine
 10
97.5
 20
621.5
 30
0.0
 11
97.5
 21
574.0
 31
0.0
  0
LINE
  5
17F
100
AcDbEntity
  8
Keine
370
               5
  6
Continuous
 62
               7
100
AcDbLine
 10
94.0
 20
622.0
 30
0.0
 11
94.0
 21
558.0
 31
0.0
  0
LINE
  5
180
100
AcDbEntity
  8
Keine
370
               5
  6
Continuous
 62
               7
100
AcDbLine
 10
258.5
 20
622.0
 30
0.0
 11
258.5
 21
558.0
 31
0.0
  0
LINE
  5
181
100
AcDbEntity
  8
Keine
370
               5
  6
Continuous
 62
               7
100
AcDbLine
 10
-502.0
 20
463.0
 30
0.0
 11
-502.0
 21
403.5
 31
0.0
  0
LINE
  5
182
100
AcDbEntity
  8
Keine
370
               5
  6
Continuous
 62
               7
100
AcDbLine
 10
-513.0
 20
464.5
 30
0.0
 11
-513.0
 21
404.0
 31
0.0
  0
LINE
  5
183
100
AcDbEntity
  8
Keine
370
               5
  6
Continuous
 62
               7
100
AcDbLine
 10
-530.0
 20
463.5
 30
0.0
 11
-530.0
 21
403.5
 31
0.0
  0
LINE
  5
184
100
AcDbEntity
  8
Keine
370
               5
  6
Continuous
 62
               7
100
AcDbLine
 10
-534.0
 20
464.0
 30
0.0
 11
-534.0
 21
404.0
 31
0.0
  0
LINE
  5
185
100
AcDbEntity
  8
Keine
370
               5
  6
Continuous
 62
               7
100
AcDbLine
 10
-346.0
 20
545.5
 30
0.0
 11
-346.0
 21
476.5
 31
0.0
  0
LINE
  5
186
100
AcDbEntity
  8
Keine
370
               5
  6
Continuous
 62
               7
100
AcDbLine
 10
-343.0
 20
545.0
 30
0.0
 11
-343.0
 21
477.0
 31
0.0
  0
LINE
  5
187
100
AcDbEntity
  8
Keine
370
               5
  6
Continuous
 62
               7
100
AcDbLine
 10
-308.0
 20
545.0
 30
0.0
 11
-308.0
 21
476.5
 31
0.0
  0
LINE
  5
188
100
AcDbEntity
  8
Keine
370
               5
  6
Continuous
 62
               7
100
AcDbLine
 10
-304.5
 20
545.0
 30
0.0
 11
-304.5
 21
476.5
 31
0.0
  0
LINE
  5
189
100
AcDbEntity
  8
Keine
370
               5
  6
Continuous
 62
               7
100
AcDbLine
 10
-851.5
 20
391.0
 30
0.0
 11
-851.5
 21
321.5
 31
0.0
  0
LINE
  5
18A
100
AcDbEntity
  8
Keine
370
               5
  6
Continuous
 62
               7
100
AcDbLine
 10
-848.0
 20
391.0
 30
0.0
 11
-848.0
 21
321.5
 31
0.0
  0
LINE
  5
18B
100
AcDbEntity
  8
Keine
370
               5
  6
Continuous
 62
               7
100
AcDbLine
 10
-826.5
 20
390.5
 30
0.0
 11
-826.5
 21
321.0
 31
0.0
  0
LINE
  5
18C
100
AcDbEntity
  8
Keine
370
               5
  6
Continuous
 62
               7
100
AcDbLine
 10
-830.5
 20
390.0
 30
0.0
 11
-830.5
 21
321.0
 31
0.0
  0
LINE
  5
18D
100
AcDbEntity
  8
Keine
370
               5
  6
Continuous
 62
               7
100
AcDbLine
 10
-549.0
 20
235.5
 30
0.0
 11
-549.0
 21
163.5
 31
0.0
  0
LINE
  5
18E
100
AcDbEntity
  8
Keine
370
               5
  6
Continuous
 62
               7
100
AcDbLine
 10
-573.0
 20
235.5
 30
0.0
 11
-573.0
 21
164.0
 31
0.0
  0
LINE
  5
18F
100
AcDbEntity
  8
Keine
370
               5
  6
Continuous
 62
               7
100
AcDbLine
 10
-573.0
 20
213.0
 30
0.0
 11
-549.0
 21
213.0
 31
0.0
  0
LINE
  5
190
100
AcDbEntity
  8
Keine
370
               5
  6
Continuous
 62
               7
100
AcDbLine
 10
-523.0
 20
235.5
 30
0.0
 11
-523.0
 21
163.0
 31
0.0
  0
LINE
  5
191
100
AcDbEntity
  8
Keine
370
               5
  6
Continuous
 62
               7
100
AcDbLine
 10
-527.0
 20
236.0
 30
0.0
 11
-527.0
 21
164.0
 31
0.0
  0
LINE
  5
192
100
AcDbEntity
  8
Keine
370
               5
  6
Continuous
 62
               7
100
AcDbLine
 10
-495.0
 20
235.5
 30
0.0
 11
-495.0
 21
163.5
 31
0.0
  0
LINE
  5
193
100
AcDbEntity
  8
Keine
370
               5
  6
Continuous
 62
               7
100
AcDbLine
 10
-449.0
 20
236.0
 30
0.0
 11
-449.0
 21
163.5
 31
0.0
  0
LINE
  5
194
100
AcDbEntity
  8
Keine
370
               5
  6
Continuous
 62
               7
100
AcDbLine
 10
-460.5
 20
235.0
 30
0.0
 11
-460.5
 21
164.0
 31
0.0
  0
LINE
  5
195
100
AcDbEntity
  8
Keine
370
               5
  6
Continuous
 62
               7
100
AcDbLine
 10
-353.5
 20
233.5
 30
0.0
 11
-353.5
 21
162.5
 31
0.0
  0
LINE
  5
196
100
AcDbEntity
  8
Keine
370
               5
  6
Continuous
 62
               7
100
AcDbLine
 10
-350.0
 20
233.0
 30
0.0
 11
-350.0
 21
162.5
 31
0.0
  0
LINE
  5
197
100
AcDbEntity
  8
Keine
370
               5
  6
Continuous
 62
               7
100
AcDbLine
 10
-339.5
 20
233.0
 30
0.0
 11
-339.5
 21
162.5
 31
0.0
  0
LINE
  5
198
100
AcDbEntity
  8
Keine
370
               5
  6
Continuous
 62
               7
100
AcDbLine
 10
-335.5
 20
233.0
 30
0.0
 11
-335.5
 21
162.0
 31
0.0
  0
LINE
  5
199
100
AcDbEntity
  8
Keine
370
               5
  6
Continuous
 62
               7
100
AcDbLine
 10
960.0
 20
545.0
 30
0.0
 11
960.0
 21
476.0
 31
0.0
  0
LINE
  5
19A
100
AcDbEntity
  8
Keine
370
               5
  6
Continuous
 62
               7
100
AcDbLine
 10
952.0
 20
545.0
 30
0.0
 11
952.0
 21
478.0
 31
0.0
  0
LINE
  5
19B
100
AcDbEntity
  8
Keine
370
               5
  6
Continuous
 62
               7
100
AcDbLine
 10
1133.0
 20
464.0
 30
0.0
 11
1132.0
 21
403.0
 31
0.0
  0
LINE
  5
19C
100
AcDbEntity
  8
Keine
370
               5
  6
Continuous
 62
               7
100
AcDbLine
 10
1125.0
 20
464.0
 30
0.0
 11
1125.0
 21
403.0
 31
0.0
  0
INSERT
  5
19D
100
AcDbEntity
  8
Keine
 62
               7
100
AcDbBlockReference
  2
Wand Keller
 10
-505.5
 20
16.5
 30
0.0
  0
INSERT
  5
19E
100
AcDbEntity
  8
Keine
 62
               7
100
AcDbBlockReference
  2
Wand Keller
 10
-346.0
 20
18.0
 30
0.0
  0
INSERT
  5
19F
100
AcDbEntity
  8
Keine
 62
               7
100
AcDbBlockReference
  2
Wand Keller
 10
-185.0
 20
18.0
 30
0.0
  0
LINE
  5
1A0
100
AcDbEntity
  8
Keine
370
               5
  6
Continuous
 62
               7
100
AcDbLine
 10
25.0
 20
98.0
 30
0.0
 11
25.0
 21
-29.0
 31
0.0
  0
LINE
  5
1A1
100
AcDbEntity
  8
Keine
370
               5
  6
Continuous
 62
               7
100
AcDbLine
 10
34.0
 20
98.0
 30
0.0
 11
34.0
 21
-29.0
 31
0.0
  0
LINE
  5
1A2
100
AcDbEntity
  8
Keine
370
               5
  6
Continuous
 62
               7
100
AcDbLine
 10
98.0
 20
98.0
 30
0.0
 11
98.0
 21
-29.0
 31
0.0
  0
LINE
  5
1A3
100
AcDbEntity
  8
Keine
370
               5
  6
Continuous
 62
               7
100
AcDbLine
 10
107.0
 20
98.0
 30
0.0
 11
107.0
 21
-28.0
 31
0.0
  0
LINE
  5
1A4
100
AcDbEntity
  8
Keine
370
               5
  6
Continuous
 62
               7
100
AcDbLine
 10
198.0
 20
99.0
 30
0.0
 11
198.0
 21
-28.0
 31
0.0
  0
LINE
  5
1A5
100
AcDbEntity
  8
Keine
370
               5
  6
Continuous
 62
               7
100
AcDbLine
 10
206.0
 20
99.0
 30
0.0
 11
206.0
 21
-29.0
 31
0.0
  0
LINE
  5
1A6
100
AcDbEntity
  8
Keine
370
               5
  6
Continuous
 62
               7
100
AcDbLine
 10
252.0
 20
97.0
 30
0.0
 11
252.0
 21
-29.0
 31
0.0
  0
LINE
  5
1A7
100
AcDbEntity
  8
Keine
370
               5
  6
Continuous
 62
               7
100
AcDbLine
 10
260.0
 20
97.0
 30
0.0
 11
260.0
 21
-30.0
 31
0.0
  0
INSERT
  5
1A8
100
AcDbEntity
  8
Keine
 62
               7
100
AcDbBlockReference
  2
Sockel
 10
632.5
 20
71.0
 30
0.0
  0
INSERT
  5
1A9
100
AcDbEntity
  8
Keine
 62
               7
100
AcDbBlockReference
  2
Sockel
 10
473.0
 20
71.0
 30
0.0
  0
LINE
  5
1AA
100
AcDbEntity
  8
Keine
370
               5
  6
Continuous
 62
               7
100
AcDbLine
 10
-27.0
 20
621.5
 30
0.0
 11
-27.0
 21
558.0
 31
0.0
  0
INSERT
  5
1AB
100
AcDbEntity
  8
Keine
 62
               7
100
AcDbBlockReference
  2
Tür1 von oben
 10
728.0
 20
590.5
 30
0.0
  0
INSERT
  5
1AC
100
AcDbEntity
  8
Keine
 62
               7
100
AcDbBlockReference
  2
Tür1 von oben
 10
591.0
 20
589.5
 30
0.0
  0
INSERT
  5
1AD
100
AcDbEntity
  8
Keine
 62
               7
100
AcDbBlockReference
  2
Tür1 von oben
 10
431.0
 20
591.0
 30
0.0
  0
INSERT
  5
1AE
100
AcDbEntity
  8
Keine
 62
               7
100
AcDbBlockReference
  2
Tür1 von oben
 10
353.5
 20
591.0
 30
0.0
  0
INSERT
  5
1AF
100
AcDbEntity
  8
Keine
 62
               7
100
AcDbBlockReference
  2
Tür1 von oben
 10
295.0
 20
591.0
 30
0.0
  0
INSERT
  5
1B0
100
AcDbEntity
  8
Keine
 62
               7
100
AcDbBlockReference
  2
Tür oben2
 10
833.5
 20
510.5
 30
0.0
  0
INSERT
  5
1B1
100
AcDbEntity
  8
Keine
 62
               7
100
AcDbBlockReference
  2
Tür oben2
 10
833.5
 20
510.5
 30
0.0
  0
INSERT
  5
1B2
100
AcDbEntity
  8
Keine
 62
               7
100
AcDbBlockReference
  2
Tür oben2
 10
674.0
 20
511.0
 30
0.0
  0
INSERT
  5
1B3
100
AcDbEntity
  8
Keine
 62
               7
100
AcDbBlockReference
  2
Tür oben2
 10
590.5
 20
511.5
 30
0.0
  0
INSERT
  5
1B4
100
AcDbEntity
  8
Keine
 62
               7
100
AcDbBlockReference
  2
Tür oben2
 10
536.5
 20
511.0
 30
0.0
  0
INSERT
  5
1B5
100
AcDbEntity
  8
Keine
 62
               7
100
AcDbBlockReference
  2
Tür oben2
 10
430.5
 20
512.0
 30
0.0
  0
INSERT
  5
1B6
100
AcDbEntity
  8
Keine
 62
               7
100
AcDbBlockReference
  2
Tür oben2
 10
405.0
 20
511.0
 30
0.0
  0
INSERT
  5
1B7
100
AcDbEntity
  8
Keine
 62
               7
100
AcDbBlockReference
  2
Tür oben2
 10
294.5
 20
511.0
 30
0.0
  0
INSERT
  5
1B8
100
AcDbEntity
  8
Keine
 62
               7
100
AcDbBlockReference
  2
Tür1 von oben
 10
674.0
 20
590.0
 30
0.0
  0
INSERT
  5
1B9
100
AcDbEntity
  8
Keine
 62
               7
100
AcDbBlockReference
  2
Tür oben 3
 10
1048.75
 20
433.5
 30
0.0
  0
INSERT
  5
1BA
100
AcDbEntity
  8
Keine
 62
               7
100
AcDbBlockReference
  2
Tür oben 3
 10
995.5
 20
434.0
 30
0.0
  0
INSERT
  5
1BB
100
AcDbEntity
  8
Keine
 62
               7
100
AcDbBlockReference
  2
Tür oben 3
 10
995.5
 20
434.0
 30
0.0
  0
INSERT
  5
1BC
100
AcDbEntity
  8
Keine
 62
               7
100
AcDbBlockReference
  2
Tür oben 3
 10
910.0
 20
433.5
 30
0.0
  0
INSERT
  5
1BD
100
AcDbEntity
  8
Keine
 62
               7
100
AcDbBlockReference
  2
Tür oben 3
 10
857.5
 20
435.0
 30
0.0
  0
INSERT
  5
1BE
100
AcDbEntity
  8
Keine
 62
               7
100
AcDbBlockReference
  2
Tür oben 3
 10
751.5
 20
433.5
 30
0.0
  0
INSERT
  5
1BF
100
AcDbEntity
  8
Keine
 62
               7
100
AcDbBlockReference
  2
Tür oben 3
 10
590.5
 20
433.5
 30
0.0
  0
INSERT
  5
1C0
100
AcDbEntity
  8
Keine
 62
               7
100
AcDbBlockReference
  2
Tür oben 3
 10
431.0
 20
433.5
 30
0.0
  0
INSERT
  5
1C1
100
AcDbEntity
  8
Keine
 62
               7
100
AcDbBlockReference
  2
Tür oben 3
 10
-70.0
 20
433.5
 30
0.0
  0
INSERT
  5
1C2
100
AcDbEntity
  8
Keine
 62
               7
100
AcDbBlockReference
  2
Tür oben 3
 10
-228.5
 20
434.5
 30
0.0
  0
INSERT
  5
1C3
100
AcDbEntity
  8
Keine
 62
               7
100
AcDbBlockReference
  2
Tür oben 3
 10
-306.5
 20
433.0
 30
0.0
  0
INSERT
  5
1C4
100
AcDbEntity
  8
Keine
 62
               7
100
AcDbBlockReference
  2
Tür oben 3
 10
-390.0
 20
434.5
 30
0.0
  0
INSERT
  5
1C5
100
AcDbEntity
  8
Keine
 62
               7
100
AcDbBlockReference
  2
Tür oben 3
 10
-444.0
 20
435.0
 30
0.0
  0
INSERT
  5
1C6
100
AcDbEntity
  8
Keine
 62
               7
100
AcDbBlockReference
  2
Doppelfenster
 10
62.25
 20
593.5
 30
0.0
  0
INSERT
  5
1C7
100
AcDbEntity
  8
Keine
 62
               7
100
AcDbBlockReference
  2
Doppelfenster
 10
61.0
 20
512.0
 30
0.0
  0
INSERT
  5
1C8
100
AcDbEntity
  8
Keine
 62
               7
100
AcDbBlockReference
  2
Doppelfenster
 10
60.0
 20
433.5
 30
0.0
  0
INSERT
  5
1C9
100
AcDbEntity
  8
Keine
 62
               7
100
AcDbBlockReference
  2
Doppelfenster
 10
62.5
 20
354.0
 30
0.0
  0
INSERT
  5
1CA
100
AcDbEntity
  8
Keine
 62
               7
100
AcDbBlockReference
  2
Doppelfenster
 10
63.5
 20
278.0
 30
0.0
  0
INSERT
  5
1CB
100
AcDbEntity
  8
Keine
 62
               7
100
AcDbBlockReference
  2
Doppelfenster
 10
64.0
 20
210.0
 30
0.0
  0
INSERT
  5
1CC
100
AcDbEntity
  8
Keine
 62
               7
100
AcDbBlockReference
  2
Doppelfenster
 10
64.5
 20
138.0
 30
0.0
  0
INSERT
  5
1CD
100
AcDbEntity
  8
Keine
 62
               7
100
AcDbBlockReference
  2
Tür oben4
 10
911.75
 20
355.5
 30
0.0
  0
INSERT
  5
1CE
100
AcDbEntity
  8
Keine
 62
               7
100
AcDbBlockReference
  2
Tür oben4
 10
834.0
 20
356.0
 30
0.0
  0
INSERT
  5
1CF
100
AcDbEntity
  8
Keine
 62
               7
100
AcDbBlockReference
  2
Tür oben4
 10
750.5
 20
357.0
 30
0.0
  0
INSERT
  5
1D0
100
AcDbEntity
  8
Keine
 62
               7
100
AcDbBlockReference
  2
Tür oben4
 10
697.5
 20
356.0
 30
0.0
  0
INSERT
  5
1D1
100
AcDbEntity
  8
Keine
 62
               7
100
AcDbBlockReference
  2
Tür oben4
 10
590.0
 20
356.0
 30
0.0
  0
INSERT
  5
1D2
100
AcDbEntity
  8
Keine
 62
               7
100
AcDbBlockReference
  2
Tür oben4
 10
430.5
 20
356.0
 30
0.0
  0
INSERT
  5
1D3
100
AcDbEntity
  8
Keine
 62
               7
100
AcDbBlockReference
  2
Tür oben4
 10
353.0
 20
356.5
 30
0.0
  0
INSERT
  5
1D4
100
AcDbEntity
  8
Keine
 62
               7
100
AcDbBlockReference
  2
Tür oben4
 10
294.5
 20
356.0
 30
0.0
  0
INSERT
  5
1D5
100
AcDbEntity
  8
Keine
 62
               7
100
AcDbBlockReference
  2
Tür oben4
 10
-70.5
 20
356.0
 30
0.0
  0
INSERT
  5
1D6
100
AcDbEntity
  8
Keine
 62
               7
100
AcDbBlockReference
  2
Tür oben4
 10
-147.0
 20
356.0
 30
0.0
  0
INSERT
  5
1D7
100
AcDbEntity
  8
Keine
 62
               7
100
AcDbBlockReference
  2
Tür oben4
 10
-228.5
 20
356.0
 30
0.0
  0
INSERT
  5
1D8
100
AcDbEntity
  8
Keine
 62
               7
100
AcDbBlockReference
  2
Tür oben4
 10
-306.5
 20
355.5
 30
0.0
  0
INSERT
  5
1D9
100
AcDbEntity
  8
Keine
 62
               7
100
AcDbBlockReference
  2
Tür oben4
 10
-413.0
 20
355.5
 30
0.0
  0
INSERT
  5
1DA
100
AcDbEntity
  8
Keine
 62
               7
100
AcDbBlockReference
  2
Tür oben4
 10
-467.0
 20
355.0
 30
0.0
  0
INSERT
  5
1DB
100
AcDbEntity
  8
Keine
 62
               7
100
AcDbBlockReference
  2
Tür oben4
 10
-626.0
 20
355.5
 30
0.0
  0
INSERT
  5
1DC
100
AcDbEntity
  8
Keine
 62
               7
100
AcDbBlockReference
  2
Tür oben4
 10
-708.5
 20
355.5
 30
0.0
  0
INSERT
  5
1DD
100
AcDbEntity
  8
Keine
 62
               7
100
AcDbBlockReference
  2
Tür oben4
 10
-761.0
 20
356.5
 30
0.0
  0
INSERT
  5
1DE
100
AcDbEntity
  8
Keine
 62
               7
100
AcDbBlockReference
  2
Tür oben 5
 10
859.0
 20
278.25
 30
0.0
  0
INSERT
  5
1DF
100
AcDbEntity
  8
Keine
 62
               7
100
AcDbBlockReference
  2
Tür oben 5
 10
833.0
 20
278.5
 30
0.0
  0
INSERT
  5
1E0
100
AcDbEntity
  8
Keine
 62
               7
100
AcDbBlockReference
  2
Tür oben 5
 10
726.5
 20
278.5
 30
0.0
  0
INSERT
  5
1E1
100
AcDbEntity
  8
Keine
 62
               7
100
AcDbBlockReference
  2
Tür oben 5
 10
675.0
 20
278.5
 30
0.0
  0
INSERT
  5
1E2
100
AcDbEntity
  8
Keine
 62
               7
100
AcDbBlockReference
  2
Tür oben 5
 10
538.5
 20
279.0
 30
0.0
  0
INSERT
  5
1E3
100
AcDbEntity
  8
Keine
 62
               7
100
AcDbBlockReference
  2
Tür oben 5
 10
430.5
 20
278.0
 30
0.0
  0
INSERT
  5
1E4
100
AcDbEntity
  8
Keine
 62
               7
100
AcDbBlockReference
  2
Tür oben 5
 10
430.5
 20
278.0
 30
0.0
 50
180.0
  0
INSERT
  5
1E5
100
AcDbEntity
  8
Keine
 62
               7
100
AcDbBlockReference
  2
Tür oben 5
 10
353.0
 20
278.0
 30
0.0
  0
INSERT
  5
1E6
100
AcDbEntity
  8
Keine
 62
               7
100
AcDbBlockReference
  2
Tür oben 5
 10
295.0
 20
279.0
 30
0.0
  0
INSERT
  5
1E7
100
AcDbEntity
  8
Keine
 62
               7
100
AcDbBlockReference
  2
Tür oben 5
 10
-70.5
 20
277.5
 30
0.0
  0
INSERT
  5
1E8
100
AcDbEntity
  8
Keine
 62
               7
100
AcDbBlockReference
  2
Tür oben 5
 10
-228.5
 20
277.5
 30
0.0
  0
INSERT
  5
1E9
100
AcDbEntity
  8
Keine
 62
               7
100
AcDbBlockReference
  2
Tür oben 5
 10
-307.0
 20
278.0
 30
0.0
  0
INSERT
  5
1EA
100
AcDbEntity
  8
Keine
 62
               7
100
AcDbBlockReference
  2
Tür oben 5
 10
-412.5
 20
278.0
 30
0.0
  0
INSERT
  5
1EB
100
AcDbEntity
  8
Keine
 62
               7
100
AcDbBlockReference
  2
Tür oben 5
 10
-466.5
 20
277.5
 30
0.0
  0
INSERT
  5
1EC
100
AcDbEntity
  8
Keine
 62
               7
100
AcDbBlockReference
  2
Tür oben 5
 10
-547.5
 20
278.5
 30
0.0
  0
INSERT
  5
1ED
100
AcDbEntity
  8
Keine
 62
               7
100
AcDbBlockReference
  2
Tür oben 5
 10
-572.0
 20
278.0
 30
0.0
  0
INSERT
  5
1EE
100
AcDbEntity
  8
Keine
 62
               7
100
AcDbBlockReference
  2
Tür oben 5
 10
-709.0
 20
277.5
 30
0.0
  0
INSERT
  5
1EF
100
AcDbEntity
  8
Keine
 62
               7
100
AcDbBlockReference
  2
Tür oben 5
 10
-786.5
 20
278.0
 30
0.0
  0
INSERT
  5
1F0
100
AcDbEntity
  8
Keine
 62
               7
100
AcDbBlockReference
  2
Tür oben 5
 10
-868.0
 20
278.0
 30
0.0
  0
INSERT
  5
1F1
100
AcDbEntity
  8
Keine
 62
               7
100
AcDbBlockReference
  2
Tür oben 5
 10
-945.0
 20
278.0
 30
0.0
  0
INSERT
  5
1F2
100
AcDbEntity
  8
Keine
 62
               7
100
AcDbBlockReference
  2
Tür oben 5
 10
-1026.5
 20
278.0
 30
0.0
  0
INSERT
  5
1F3
100
AcDbEntity
  8
Keine
 62
               7
100
AcDbBlockReference
  2
Tür oben 6
 10
696.75
 20
209.75
 30
0.0
  0
INSERT
  5
1F4
100
AcDbEntity
  8
Keine
 62
               7
100
AcDbBlockReference
  2
Tür oben 6
 10
673.5
 20
209.5
 30
0.0
  0
INSERT
  5
1F5
100
AcDbEntity
  8
Keine
 62
               7
100
AcDbBlockReference
  2
Tür oben 6
 10
589.0
 20
210.0
 30
0.0
  0
INSERT
  5
1F6
100
AcDbEntity
  8
Keine
 62
               7
100
AcDbBlockReference
  2
Tür oben 6
 10
430.0
 20
210.0
 30
0.0
  0
INSERT
  5
1F7
100
AcDbEntity
  8
Keine
 62
               7
100
AcDbBlockReference
  2
Tür oben 6
 10
406.5
 20
211.0
 30
0.0
  0
INSERT
  5
1F8
100
AcDbEntity
  8
Keine
 62
               7
100
AcDbBlockReference
  2
Tür oben 6
 10
352.0
 20
210.0
 30
0.0
  0
INSERT
  5
1F9
100
AcDbEntity
  8
Keine
 62
               7
100
AcDbBlockReference
  2
Tür 7 oben
 10
544.75
 20
140.0
 30
0.0
  0
INSERT
  5
1FA
100
AcDbEntity
  8
Keine
 62
               7
100
AcDbBlockReference
  2
Tür 7 oben
 10
495.0
 20
140.5
 30
0.0
  0
INSERT
  5
1FB
100
AcDbEntity
  8
Keine
 62
               7
100
AcDbBlockReference
  2
Tür 7 oben
 10
442.5
 20
140.5
 30
0.0
  0
INSERT
  5
1FC
100
AcDbEntity
  8
Keine
 62
               7
100
AcDbBlockReference
  2
Tür 7 oben
 10
364.5
 20
139.5
 30
0.0
  0
INSERT
  5
1FD
100
AcDbEntity
  8
Keine
 62
               7
100
AcDbBlockReference
  2
Tür 7 oben
 10
294.5
 20
140.0
 30
0.0
  0
INSERT
  5
1FE
100
AcDbEntity
  8
Keine
 62
               7
100
AcDbBlockReference
  2
Tür 7 oben
 10
-209.5
 20
116.5
 30
0.0
  0
INSERT
  5
1FF
100
AcDbEntity
  8
Keine
 62
               7
100
AcDbBlockReference
  2
Tür 7 oben
 10
-249.0
 20
115.5
 30
0.0
  0
INSERT
  5
200
100
AcDbEntity
  8
Keine
 62
               7
100
AcDbBlockReference
  2
Tür 7 oben
 10
-347.0
 20
116.5
 30
0.0
  0
INSERT
  5
201
100
AcDbEntity
  8
Keine
 62
               7
100
AcDbBlockReference
  2
Tür 7 oben
 10
-560.0
 20
115.5
 30
0.0
  0
INSERT
  5
202
100
AcDbEntity
  8
Keine
 62
               7
100
AcDbBlockReference
  2
Treppenhaus
 10
147.0
 20
511.0
 30
0.0
  0
INSERT
  5
203
100
AcDbEntity
  8
Keine
 62
               7
100
AcDbBlockReference
  2
Treppenhaus
 10
146.0
 20
356.0
 30
0.0
  0
LINE
  5
204
100
AcDbEntity
  8
Keine
370
               5
  6
Continuous
 62
               7
100
AcDbLine
 10
121.5
 20
463.0
 30
0.0
 11
162.0
 21
439.61731409782004
 31
0.0
  0
INSERT
  5
205
100
AcDbEntity
  8
Keine
 62
               7
100
AcDbBlockReference
  2
Treppenhaus 2
 10
147.0
 20
433.75
 30
0.0
  0
INSERT
  5
206
100
AcDbEntity
  8
Keine
 62
               7
100
AcDbBlockReference
  2
Treppenhaus 2
 10
146.0
 20
279.5
 30
0.0
  0
INSERT
  5
207
100
AcDbEntity
  8
Keine
 62
               7
100
AcDbBlockReference
  2
Treppenhaus 2
 10
146.0
 20
279.5
 30
0.0
  0
INSERT
  5
208
100
AcDbEntity
  8
Keine
 62
               7
100
AcDbBlockReference
  2
Treppenhaus 2
 10
146.5
 20
140.5
 30
0.0
  0
INSERT
  5
209
100
AcDbEntity
  8
Keine
 62
               7
100
AcDbBlockReference
  2
Treppenhaus 2
 10
146.5
 20
140.5
 30
0.0
  0
INSERT
  5
20A
100
AcDbEntity
  8
Keine
 62
               7
100
AcDbBlockReference
  2
Treppenhaus 2
 10
146.5
 20
140.5
 30
0.0
  0
LINE
  5
20B
100
AcDbEntity
  8
Keine
370
               5
  6
Continuous
 62
               7
100
AcDbLine
 10
199.5
 20
235.0
 30
0.0
 11
199.5
 21
183.5
 31
0.0
  0
LINE
  5
20C
100
AcDbEntity
  8
Keine
370
               5
  6
Continuous
 62
               7
100
AcDbLine
 10
93.0
 20
236.0
 30
0.0
 11
93.0
 21
185.0
 31
0.0
  0
LINE
  5
20D
100
AcDbEntity
  8
Keine
370
               5
  6
Continuous
 62
               7
100
AcDbLine
 10
116.5
 20
236.5
 30
0.0
 11
161.53332099679059
 21
210.5
 31
0.0
  0
LINE
  5
20E
100
AcDbEntity
  8
Keine
370
               5
  6
Continuous
 62
               7
100
AcDbLine
 10
160.5
 20
211.09658815565638
 30
0.0
 11
112.5
 21
183.38377523455466
 31
0.0
  0
LINE
  5
20F
100
AcDbEntity
  8
Keine
370
               5
  6
Continuous
 62
               7
100
AcDbLine
 10
131.5
 20
227.83974596215558
 30
0.0
 11
93.0
 21
205.6117605983552
 31
0.0
  0
LINE
  5
210
100
AcDbEntity
  8
Keine
370
               5
  6
Continuous
 62
               7
100
AcDbLine
 10
140.0
 20
222.93226867404374
 30
0.0
 11
93.0
 21
195.79680602213165
 31
0.0
  0
LINE
  5
211
100
AcDbEntity
  8
Keine
370
               5
  6
Continuous
 62
               7
100
AcDbLine
 10
160.5
 20
236.0
 30
0.0
 11
160.5
 21
205.5
 31
0.0
  0
LINE
  5
212
100
AcDbEntity
  8
Keine
370
               5
  6
Continuous
 62
               7
100
AcDbLine
 10
93.0
 20
205.61176059835523
 30
0.0
 11
199.5
 21
205.61176059835523
 31
0.0
  0
LINE
  5
213
100
AcDbEntity
  8
Keine
370
               5
  6
Continuous
 62
               7
100
AcDbLine
 10
160.5
 20
216.5
 30
0.0
 11
199.5
 21
216.5
 31
0.0
  0
LINE
  5
214
100
AcDbEntity
  8
Keine
370
               5
  6
Continuous
 62
               7
100
AcDbLine
 10
160.5
 20
225.5
 30
0.0
 11
199.5
 21
225.5
 31
0.0
  0
LINE
  5
215
100
AcDbEntity
  8
Keine
370
               5
  6
Continuous
 62
               7
100
AcDbLine
 10
160.5
 20
220.5
 30
0.0
 11
133.5
 21
236.08845726811973
 31
0.0
  0
WIPEOUT
  5
216
100
AcDbEntity
  8
Keine
370
               5
  6
Continuous
 62
             255
 92
        0
100
AcDbWipeout
 90
        0
 10
-1160.0
 20
309.0
 30
0.0
 11
31.0
 21
0.0
 31
0.0
 12
0.0
 22
31.0
 32
0.0
 13
1.0
 23
1.0
340
0
 70
               7
280
               1
281
              50
282
              50
283
               0
360
0
 71
               2
 91
        5
 14
0.5
 24
0.0806451612903226
 14
0.5
 24
0.5
 14
-0.5
 24
0.5
 14
-0.5
 24
0.0806451612903226
 14
0.5
 24
0.0806451612903226
  0
LINE
  5
217
100
AcDbEntity
  8
Keine
370
               5
  6
Continuous
 62
             255
100
AcDbLine
 10
-1160.0
 20
322.0
 30
0.0
 11
-1160.0
 21
309.0
 31
0.0
  0
LINE
  5
218
100
AcDbEntity
  8
Keine
370
               5
  6
Continuous
 62
             255
100
AcDbLine
 10
-1129.0
 20
309.0
 30
0.0
 11
-1160.0
 21
309.0
 31
0.0
  0
LINE
  5
219
100
AcDbEntity
  8
Keine
370
               5
  6
Continuous
 62
             255
100
AcDbLine
 10
-1129.0
 20
322.0
 30
0.0
 11
-1160.0
 21
322.0
 31
0.0
  0
LINE
  5
21A
100
AcDbEntity
  8
Keine
370
               5
  6
Continuous
 62
             255
100
AcDbLine
 10
-1129.0
 20
322.0
 30
0.0
 11
-1129.0
 21
309.0
 31
0.0
  0
LINE
  5
21B
100
AcDbEntity
  8
Keine
370
               5
  6
Continuous
 62
             255
100
AcDbLine
 10
-1160.0
 20
322.0
 30
0.0
 11
-1160.0
 21
298.0
 31
0.0
  0
LINE
  5
21C
100
AcDbEntity
  8
Keine
370
               5
  6
Continuous
 62
               7
100
AcDbLine
 10
-1159.5
 20
308.0
 30
0.0
 11
-1159.5
 21
321.0
 31
0.0
  0
LINE
  5
21D
100
AcDbEntity
  8
Keine
370
               5
  6
Continuous
 62
               7
100
AcDbLine
 10
-1129.0
 20
321.0
 30
0.0
 11
-1159.5
 21
321.0
 31
0.0
  0
ENDSEC
  0
SECTION
  2
OBJECTS
  0
DICTIONARY
  5
19
100
AcDbDictionary
280
               0
281
               1
  3
ACAD_GROUP
350
1A
  3
ACAD_MLINESTYLE
350
1B
  3
ACAD_LAYOUT
350
1E
  3
ACAD_PLOTSETTINGS
350
22
  3
ACAD_PLOTSTYLENAME
350
1F
  3
ACAD_WIPEOUT_VARS
350
23
  0
DICTIONARY
  5
1A
102
{ACAD_REACTORS
330
19
102
}
100
AcDbDictionary
280
               0
281
               1
  0
DICTIONARY
  5
1B
102
{ACAD_REACTORS
330
19
102
}
100
AcDbDictionary
280
               0
281
               1
  3
Standard
350
1C
  0
MLINESTYLE
  5
1C
102
{ACAD_REACTORS
330
1B
102
}
100
AcDbMlineStyle
  2
Standard
 70
               0
  3

 62
               0
 51
90.0
 52
90.0
 71
               2
 49
0.5
 62
             256
  6
ByLayer
 49
-0.5
 62
             256
  6
ByLayer
  0
ACDBDICTIONARYWDFLT
  5
1F
102
{ACAD_REACTORS
330
19
102
}
100
AcDbDictionary
281
               1
  3
Normal
350
1D
100
AcDbDictionaryWithDefault
340
1D
  0
ACDBPLACEHOLDER
  5
1D
102
{ACAD_REACTORS
330
1F
102
}
  0
LAYOUT
  5
20
102
{ACAD_REACTORS
330
1E
102
}
100
AcDbPlotSettings
  1

  2

  4

  6

 40
0.0
 41
0.0
 42
0.0
 43
0.0
 44
0.0
 45
0.0
 46
0.0
 47
0.0
 48
0.0
 49
0.0
140
0.0
141
0.0
142
1.0
143
1.0
 70
            1024
 72
               0
 73
               0
 74
               0
  7

 75
               0
147
1.0
148
0.0
149
0.0
100
AcDbLayout
  1
Model
 70
               0
 71
               0
 10
0.0
 20
0.0
 11
0.0
 21
0.0
 12
0.0
 22
0.0
 32
0.0
 14
0.0
 24
0.0
 34
0.0
 15
0.0
 25
0.0
 35
0.0
146
0.0
 13
0.0
 23
0.0
 33
0.0
 16
0.0
 26
0.0
 36
0.0
 17
0.0
 27
0.0
 37
0.0
 76
               0
330
A
331
0
345
0
346
0
  0
LAYOUT
  5
21
102
{ACAD_REACTORS
330
1E
102
}
100
AcDbPlotSettings
  1

  2

  4

  6

 40
0.0
 41
0.0
 42
0.0
 43
0.0
 44
0.0
 45
0.0
 46
0.0
 47
0.0
 48
0.0
 49
0.0
140
0.0
141
0.0
142
1.0
143
1.0
 70
               0
 72
               0
 73
               0
 74
               0
  7

 75
               0
147
1.0
148
0.0
149
0.0
100
AcDbLayout
  1
Layout1
 70
               0
 71
               0
 10
0.0
 20
0.0
 11
0.0
 21
0.0
 12
0.0
 22
0.0
 32
0.0
 14
0.0
 24
0.0
 34
0.0
 15
0.0
 25
0.0
 35
0.0
146
0.0
 13
0.0
 23
0.0
 33
0.0
 16
0.0
 26
0.0
 36
0.0
 17
0.0
 27
0.0
 37
0.0
 76
               0
330
B
331
0
345
0
346
0
  0
DICTIONARY
  5
1E
102
{ACAD_REACTORS
330
19
102
}
100
AcDbDictionary
280
               0
281
               1
  3
Layout1
350
21
  3
Model
350
20
  0
DICTIONARY
  5
22
102
{ACAD_REACTORS
330
19
102
}
100
AcDbDictionary
280
               0
281
               1
  0
WIPEOUTVARIABLES
  5
23
100
AcDbWipeoutVariables
 70
               0
  0
ENDSEC
  0
EOF
